» » »

Asesinos Tabs (ver.2)

Artists:  A B C D E F G H I J K L M N O P Q R S T U V W X Y Z # 

Asesinos Tabs (ver.2)

Los Crudos
Rating:
0/5 (0 votes)

Hard to play? Try these video lessons and learn fast.
                ****************************************************************************
-Assesinos
-Los Crudos


Tuning:Standard

(Drums)
ASSESINOOOOOOOOOOOOOOOOOOOOOOOOOOOOOO!!!!
(Bass)

VERSE
e|-------------------------------------|
B|(FEED)-------------------------------|
G|(BACK)------9-9----------------------| 
D|-------7-7--9-9--10-10-10-10---------|
A|-------7-7--7-7--10-10-10-10---------|
E|-------5-5--------8--8--8--8---------|


CHORUS
e|--------------------------------------|
B|--------------------------------------|
G|---7-7-7-7---9-9-9-9------------------| 
D|---7-7-7-7---9-9-9-9----7-7-7-7-------|
A|---5-5-5-5---7-7-7-7----7-7-7-7-------|
E|------------------------5-5-5-5-------|


This is the entire song!
Gotta love punk!


PROGRESSION
1.INTRO
2.VERSE
3.CHORUS
4.VERSE
5.CHORUS
6.(Drum & Bass Fill)
7.CHORUS

****************************************************************************
            
Hard to play? Try these video lessons and learn fast. | Correct




comments powered by Disqus
↑ Back to top | Tablatures and chords are parodies/interpretations of the original songs. You may use it for private study, scholarship, research or language learning purposes only