» » »

Los Campesinos, You! Me! Dancing! Tabs (ver.2)

Artists:  A B C D E F G H I J K L M N O P Q R S T U V W X Y Z # 

You! Me! Dancing! Tabs (ver.2)

Los Campesinos Tabs
Rating:
0/5 (0 votes)
You! Me! Dancing! lessons Tabs too difficult? Try these video lessons and learn fast
                Band: Los Campesinos!

No ones tabbed this excellent song by Los Campesinos! :O !!!

Guitar 2 plays practically the same two chords (A and D)throughout the song, just in 
strumming patterns, keep that in mind.

The intro for this song is basically the main riff letting ring each chord instead of 
but there are some differences, which need to still be tabbed.
the build up to when the song kicks in is just a A chord strummed faster and faster.

Main Riff Part 1/Chorus (x2)

Guitar 1
e|----------------------------|
B|----------------------------|
G|--6-6-9-6-9-6-4-------------|
D|--7-7-7-7-7-7-7-7-7-7-7-7---|
A|--0-0-0-0-0-0-0-7-4-7-7-7---|
E|----------------5-5-5-5-5---|

Guitar 2
e|----------------------------|
B|----------------------------|
G|--6-6-6-6-6-6-6-6-6-6-6-6---|
D|--7-7-7-7-7-7-7-7-7-7-7-7---|
A|--7-7-7-7-7-7-7-7-7-7-7-7---|
E|--5-5-5-5-5-5-5-5-5-5-5-5---|


Main Riff Part 2/Chorus (x1)

Guitar 1
e|------------------------------------------------------------------|
B|------------------------------------------------------------------|
G|--9-11-9-9-11-9-14-11-9-11-11-11--9-11-11-9-11-9-14-11-9-11-11----|
D|--0--0-0-0--0-0--0--0-0--0--0--0--0--0--0-0--0-0--0--0-0--0--0----|
A|------------------------------------------------------------------|
E|------------------------------------------------------------------|

Guitar 2
e|------------------------------------------------------------------|
B|------------------------------------------------------------------|
G|--11-11-11-11-11-11-11-11-11-11-11-11-11-11-11-11-11-11-11-11-----|
D|--12-12-12-12-12-12-12-12-12-12-12-12-12-12-12-12-12-12-12-12-----|
A|--12-12-12-12-12-12-12-12-12-12-12-12-12-12-12-12-12-12-12-12-----|
E|--10-10-10-10-10-10-10-10-10-10-10-10-10-10-10-10-10-10-10-10-----|

Main Riff Extra Bit (Play this just before the drums kick in, listen to the song)

e|----------------------|
B|----------------------|
G|--14-14-14/16-16-16---|
D|---0--0--0--0--0--0---|
A|----------------------|
E|----------------------|


Verse Riff

Guitar 1                                     Play On Last Bar
e|--------------------------------------------|-----------------|
B|---14--14----------14--14--15--15--15-------|---12--10--10----|
G|----------------14--------------------------|-----------------|
D|-------------16-----------------------------|-----------------|
A|--------------------------------------------|-----------------|
E|--------------------------------------------|-----------------|

Guitar 2 just alternates between the same two chords, but let ring.


Pre Chorus

Both Guitars
e|---0--0--0--0---|
B|---0--0--0--0---|
G|---0--0--0--0---|
D|---0--0--0--0---|
A|---0--0--0--0---|
E|---0--0--0--0---|


I still need to tab the solo and the outro riff for 'guitar 1', but u can just play the 
2' chords for them for now :)

Finish On

Guitar 1
e|-------------------------|
B|-------------------------|
G|--14------14/16---16/18--|
D|---0-------0--0----0--0--|
A|-------------------------|
E|-------------------------|

Hope u lot like it, its truely a super catchy song!

Any Q's?

Thanx
            
Submit corrections

comments powered by Disqus
↑ Back to top | Los Campesinos Tabs for You! Me! Dancing!. Lyrics for acoustic guitar and electric guitar. Tablatures and chords are parodies/interpretations of the original songs. You may use it for private study, scholarship, research or language learning purposes only