» » »

Los Campesinos, You! Me! Dancing! Tabs (ver.1)

Artists:  A B C D E F G H I J K L M N O P Q R S T U V W X Y Z # 

You! Me! Dancing! Tabs (ver.1)

Los Campesinos Tabs
 Rating:
4/5 (4 votes)
You! Me! Dancing! lessons Tabs too difficult? Try these video lessons and learn fast
1
                RE-TABBED! :)

Band: Los Campesinos!

Alright, so my 1st one had a few kerfuffles, and iv seen the other tab in the misc 
so i thought id bang it all together coz im sucha nice guy :)

Guitar 2 plays practically the same two chords (A and D) throughout the song, just in 
strumming patterns, keep that in mind.


Intro

Guitar 1
e|----------------------------------------------------------------------------------|
B|----------------------------------------------------------------------------------|
G|---------------------------------------------------------------14-----------------|
D|11---11/9-9---9/7-7---7/2-2/4---4/2-2/11-11---11/14-14---14h16----16/14-14/11-11--|
A|0----0--0-0---0-0-0---0-0-0-0---0-0-0-0--0----0--0--0----0--------0--0--0--0--0---|
E|----------------------------------------------------------------------------------|

e|----------------------------------------------------------------------------------|
B|----------------------------------------------------------------------------------|
G|----------------------------------------------------------------------------------|
D|11/14-14---14/9-9---9/11-11---11/6-6---6/7-7--12-12-12-12-12-12-12-12-12-12-12-12-|
A|0--0--0----0--0-0---0-0--0----0--0-0---0-0-0--0--0--0--0--0--0--0--0--0--0--0--0--|
E|----------------------------------------------------------------------------------|

e|----------------------------------------------------|
B|----------------------------------------------------|
G|----------------------------------------------------|
D|-12-12-12-12-12-12-12-12-12-12-12-12-14-14-14-14-14-|
A|-0--0--0--0--0--0--0--0--0--0--0--0--0--0--0--0--0--|
E|-------------------------------------0--0--0--0--0--|

Main Riff/Chorus (x2)

Guitar 1
e|-------------------------------------------------------------------------------|
B|-------------------------------------------------------------------------------|
G|-------------------------------------------------------------------------------|
D|11-14-14-11-14-11-11-9-9-7-7-4-4-7-7-4-11-14-14-11-14-11-11-9-9-7-7-4-4-7-7-4--|
A|0--0--0--0--0--0--0--0-0-0-0-0-0-0-0-0-0--0--0--0--0--0--0--0-0-0-0-0-0-0-0-0--|
E|-------------------------------------------------------------------------------|

e|------------------------------------------------------------------|
B|------------------------------------------------------------------|
G|--9-11-9-9-11-9-14-11-9-11-11-11--9-11-11-9-11-9-14-11-9-11-11----|
D|--0-0--0-0-0--0-0--0--0-0--0--0---0-0--0--0-0--0-0--0--0-0--0-----|
A|------------------------------------------------------------------|
E|------------------------------------------------------------------|

e|----------------------|
B|----------------------|
G|--14-14-14/16-16-16---|
D|---0--0--0--0--0--0---|
A|----------------------|
E|----------------------|


Guitar 2 (Kicks in with drums)
e|----------------------------|
B|----------------------------|
G|--6-6-6-6-6-6-6-6-6-6-6-6---|
D|--7-7-7-7-7-7-7-7-7-7-7-7---|
A|--7-7-7-7-7-7-7-7-7-7-7-7---|
E|--5-5-5-5-5-5-5-5-5-5-5-5---|

e|-----------------------------------|
B|-----------------------------------|
G|--11-11-11-11-11-11-11-11-11-11----|
D|--12-12-12-12-12-12-12-12-12-12----|
A|--12-12-12-12-12-12-12-12-12-12----|
E|--10-10-10-10-10-10-10-10-10-10----|


Verse Riff

Guitar 1                                           Play On Last Bar
e|--------------------------------------------|--------------------------|
B|---14--14----------14--14--14--15--15--14---|--------14----14----14----|
G|----------------14--------------------------|-----14----14----14----14-|
D|-------------16-----------------------------|--16----------------------|
A|--------------------------------------------|--------------------------|
E|--------------------------------------------|--------------------------|

Guitar 2 just alternates between the same two chords (A and D), but let ring.


Pre Chorus Part 1

Guitar 1
e|---------------------------|
B|---------------------------|
G|---------------------------|
D|---------------------------|
A|--4~---7~---9~---4~---2~---|
E|--2~---5~---7~---2~---0~---|


Pre Chorus Part 2

Guitar 1 (vv 1st pre chorus vv)              (vv 2nd pre chorus vv)
e|-----------------------------|          |------------------------|
B|-----14-17-17-17-17-14----14-|          |-----14-17-----14-------|
G|--16-------------------16----|          |--16--------16----16----|
D|-----------------------------|          |------------------------|
A|-----------------------------|          |------------------------|
E|-----------------------------|          |------------------------|

Guitar 2
e|---0--0--0--0---|
B|---0--0--0--0---|
G|---0--0--0--0---|
D|---0--0--0--0---|
A|---0--0--0--0---|
E|---0--0--0--0---|


Solo

Guitar 1
Pt 1
e|-----------------------------------|
B|--------14--17--14----14-17--14----|
G|----16-------------16----------16--|
D|-----------------------------------|
A|-----------------------------------|
E|-----------------------------------|

Pt 2
e|----------------------------------------------|
B|---14----19--17------17--19-17----17-17-------|
G|-----------------18------------18-------18----|
D|----------------------------------------------|
A|----------------------------------------------|
E|----------------------------------------------|

Pt 3
e|---17-17-14-14----14-----17-17-14-14-------14------|
B|---------------17----17--------------17-17----17---|
G|---------------------------------------------------|
D|---------------------------------------------------|
A|---------------------------------------------------|
E|---------------------------------------------------|

Pt 4
e|--17/21-21-21-19-19----(19)---21--21-19-19-------19------|--21-21-21-21-21-|
B|---------------------22----22--------------22-22----22---|-----------------|
G|---------------------------------------------------------|-----------------|
D|---------------------------------------------------------|-----------------|
A|---------------------------------------------------------|-----------------|
E|---------------------------------------------------------|-----------------|

Outro Riff (cba typing the rhythm, use these notes, ull figure it out)

e|--9--5--7--5--9--5--7--5--9--12--9--7--9--5--12--14--|

Finish On

Guitar 1
e|-----------------------|
B|-----------------------|
G|---9--9/6---6/2---2/4--|
D|---0--0-0---0-0---0-0--|
A|-----------------------|
E|-----------------------|

LYRICS

The beats yeah,
they were coming out the speakers and rewinding up,
straight in your sneakers
and I'm dancing like every song
who spends his bizzle like all my dance heroes would if they existed.

And it's sad that you think that we're all just scenesters
and even if we were its not the senior thinking of,
to taking props from like these boy band fashions,
all crop tops and testosterone passion.


If there's one thing that I could never confess,
it's that I can't dance a single step.


It's you.
It's me.
And there's dancing! (x2)

Not sure if you mind if I dance with you
but right now I don't think you care about anything.
And oh if only there were clothes on the floor,
I'd feel for certain I was bedroom dancing.
And it's all flaming limbs at the front line.
Every single one of us is twisted by design
and dispatches from the back of mind,
just as long as were here everything is alright.


If there's one thing that I could never confess,
it's that I can't dance a single step.


It's you.
It's me.
And there's dancing! (x2)

Sorry i messed it up a bit 1st time round, thanx to the guy who done the misc tab, twas helpful.
Thanx, hope its orite, took a good hour to get it perfected in my eyes.
            
Submit corrections

comments powered by Disqus
↑ Back to top | Los Campesinos Tabs for You! Me! Dancing!. Lyrics for acoustic guitar and electric guitar. 1 Tablatures and chords are parodies/interpretations of the original songs. You may use it for private study, scholarship, research or language learning purposes only