» » »

Los Campesinos, This Is How You Spell "Hahaha, We Destroyed The Hopes And Dreams Of A Generation Of Faux-Romantics" Tabs (ver.1)

Artists:  A B C D E F G H I J K L M N O P Q R S T U V W X Y Z # 

This Is How You Spell "Hahaha, We Destroyed The Hopes And Dreams Of A Generation Of Faux-Romantics" Tabs (ver.1)

Los Campesinos Tabs
 Rating:
4/5 (4 votes)
This Is How You Spell  Tabs too difficult? Try these video lessons and learn fast
1
                ----------------------------------------------------------------------------
This is How You Spell, "HAHAHA We Destroyed the Hopes and Dreams of a Generation of 
- Los Campesinos!
-------------------------------------------------------------------------------

comments and rates please :)
seems to be a decent tab, sounds right.

Tuning:standard

Riff 1 (keyboard riff)
e|------15-----15-----15-----15-12-15-12-15---------------------------------|
B|-12-15--12-15--12-15--12-15-----------------------------------------------|
G|--------------------------------------------------------------------------|
D|--------------------------------------------------------------------------|
A|--------------------------------------------------------------------------|
E|--------------------------------------------------------------------------|

Riff 2 (just before chords)
e|--------------------------------------------------------------------------|
B|-12-15-12-15-12-15-----12-------------------------------------------------|
G|------------------12h14---------------------------------------------------|
D|--------------------------------------------------------------------------|
A|--------------------------------------------------------------------------|
E|--------------------------------------------------------------------------|

Riff 3 (chord part, pre-verse)
C,E,C,G (keep playing G 'till it repeats)
e|-----00-000----3------------------------------------------------------|
B|-----00-000----3------------------------------------------------------|
G|-555-11-111-55-4------------------------------------------------------|
D|-555-22-222-55-5------------------------------------------------------|
A|-333-22-222-33-5------------------------------------------------------|
E|-----00-000----3------------------------------------------------------|

Riff 4 (chorus)
E,C,E,A,B
e|----------------------------------------------3---------------------------|
B|----------------------------------------------3---------------------------|
G|-999-555-999-7-444-999-555-999-7-999-55555555-4---------------------------|
D|-999-555-999-7-444-999-555-999-7-999-55555555-5---------------------------|
A|-777-333-777-5-222-777-333-777-5-777-33333333-5---------------------------|
E|----------------------------------------------3---------------------------|

Riff 1&Riff 2
Riff 3
Riff 4

Riff 5 (on  second chorus)
"This is how you spell..."
A,B,C,A,G,D
e|---------------------------------------------------------------------------|
B|---------------------------------------------------------------------------|
G|-----------------------------------------7777------------------------------|
D|-77777777-9999-10-10-10-10-77777777-5555-7777------------------------------|
A|-77777777-9999-10-10-10-10-77777777-5555-5555------------------------------|
E|-55555555-7777--8--8--8--8-55555555-3333-----------------------------------|
E,G,E,G,E
e|--------------------------------------------------------------------------|
B|--------------------------------------------------------------------------|
G|-99999999-1212121212121212-99999999-1212121212121212-99999999-------------|
D|-99999999-1212121212121212-99999999-1212121212121212-99999999-------------|
A|-77777777-1010101010101010-77777777-1010101010101010-77777777-------------|
E|--------------------------------------------------------------------------|
G,C,G
e|----------------------------------3---------------------------------------|
B|----------------------------------3---------------------------------------|
G|-1212121212121212-5-5-5-5-5-5-5-5-4---------------------------------------|
D|-1212121212121212-5-5-5-5-5-5-5-5-5---------------------------------------|
A|-1010101010101010-3-3-3-3-3-3-3-3-5---------------------------------------|
E|----------------------------------3---------------------------------------|

Verse (vocal)
play G at the end of each line
e|-3------------------------------------------------------------------------|
B|-3------------------------------------------------------------------------|
G|-4------------------------------------------------------------------------|
D|-5------------------------------------------------------------------------|
A|-5------------------------------------------------------------------------|
E|-3------------------------------------------------------------------------|

Verse riff in middle (vocal)
e|--------------------------------------------------------------------------|
B|--------------------------------------------------------------------------|
G|-12--12----12--12---------------------------------------------------------|
D|---12--1212--12-----------------------------------------------------------|
A|--------------------------------------------------------------------------|
E|--------------------------------------------------------------------------|

Riff 3
Riff 4
Riff 5
end.

| /  slide up
| \  slide down
| h  hammer-on
| p  pull-off
| ~  vibrato
| +  harmonic
| x  Mute note
===============================================================================
            
Submit corrections

comments powered by Disqus
↑ Back to top | Los Campesinos Tabs for This Is How You Spell "Hahaha, We Destroyed The Hopes And Dreams Of A Generation Of Faux-Romantics". Lyrics for acoustic guitar and electric guitar. 1 Tablatures and chords are parodies/interpretations of the original songs. You may use it for private study, scholarship, research or language learning purposes only