» » »

Knee Deep At Atp Tabs (ver.1)

Artists:  A B C D E F G H I J K L M N O P Q R S T U V W X Y Z # 

Knee Deep At Atp Tabs (ver.1)

Los Campesinos
Rating:
5/5 (2 votes)

Hard to play? Try these video lessons and learn fast.
                Los Campesinos!
Knee Deep at ATP

Hold On Now, Youngster...

Main Riff
e|----------------------------------------------------------------------------------|
b|---0---0-0-0-0----------12------12---------0---0---0---14-14-14-------------------|
g|13\4---4-4-4-4/13-13-13------13----13-13\6---6---6---6/---------16---16-16-16-----|
d|----------------------------------------------------------------------------------|
a|----------------------------------------------------------------------------------|
e|----------------------------------------------------------------------------------|

e|----------------------------------------------------------------------------------|
b|---0---0-0-0-0----------12------12---------0---0---0---b15-b15-r14----------------|
g|13\4---4-4-4-4/13-13-13------13----13-13\6---6---6---6/------------16---16-16-16--|
d|----------------------------------------------------------------------------------|
a|----------------------------------------------------------------------------------|
e|----------------------------------------------------------------------------------|

e|---0---0-0-0-0----------12------12---------0---0---0------------16------16--------|
b|12\5---5-5-5-5/14-14-14------14----14-14\7---7---7---7/19-19-19------19----19-----|
g|----------------------------------------------------------------------------------|
d|----------------------------------------------------------------------------------|
a|----------------------------------------------------------------------------------|
e|----------------------------------------------------------------------------------|

e|---0---0-0-0-0----------12------12---------0---0---0------------16------16----16--|
b|12\5---5-5-5-5/14-14-14------14----14-14\7---7---7---7/19-19-19------19----19-----|
g|----------------------------------------------------------------------------------|
d|----------------------------------------------------------------------------------|
a|----------------------------------------------------------------------------------|
e|----------------------------------------------------------------------------------|


Change
  E		    C#		      F#		A
e|----------------------------------------------------------------------------------|
b|----------------------------------------------------------------------------------|
g|----1-------1---------6-------6---------3-------3---------6-------6---------------|
d|------2-------2---------6-------6---------4-------4---------6-------6-------------|
a|--2-------2-------4-4-------4---------4-----------------7-------------------------|
e|0-------0---------------------------2---------2-------5---------5-----------------|

e|----------------------------------------------------------------------------------|
b|----------------------------------------------------------------------------------|
g|----1-------1---------6-------6---------3-------3---------6-----------------------|
d|------2-------2---------6-------6---------4-------4---------6-----7\--------------|
a|--2-------2-------4-4-------4---------4-----------------7---------7\--------------|
e|0-------0---------------------------2---------2-------5---------5-----------------|


E                         C#m                      F#                   A
And every sentence that I spoke began and ended in ellipses,

E                         G#                       F#                   A
Each of eight fingers gripping what he wrote, clung on tightly, like parenthesis

E                      C#m              F#                              A
And for each correctly used apostrophe, I could feel my heart sink inside my

E                      C#m              F#                              A
So, maybe the lining of a winter's coat mightn't be the best place to hide a summer secret

E                                                C#m
You said every photo that you took that festival got lost in your camera insurance scam,

F#                                                     A
And though underexposed, i could see from the quality, his K Records t-shirt and your 
holding his hand

E                                    G#
And I know he took you to the beach, I can tell from how you bite on your

       F#                                   A
cheek, every time the sand falls from your insoles

             E          C#m                      F#                    A
And when our eyes meet, all that I can read, is "you're the b-side".



Main Riff again



They said "It's not what you like, it's what you're like as a person",

Well, I need new hobbies, that's one thing for certain.

"It's not what you like, it's what you're like as a person",

Well, I need new hobbies, that's one thing for certain.

End on E
	e|-x-
	b|-9-
	g|-9-
	d|-9-
	a|-7-
	e|-x-

Pretty sure thats 100%
            
Hard to play? Try these video lessons and learn fast. | Correct




comments powered by Disqus
↑ Back to top | Tablatures and chords are parodies/interpretations of the original songs. You may use it for private study, scholarship, research or language learning purposes only