» » »

Los Campesinos, It Started With A Mixx Bass tabs (ver.1)

Artists:  A B C D E F G H I J K L M N O P Q R S T U V W X Y Z # 

It Started With A Mixx Bass tabs (ver.1)

Los Campesinos Tabs
Rating:
0/5 (0 votes)
It Started With A Mixx lessons Tabs too difficult? Try these video lessons and learn fast
                this song's a bit tricky, the best advice I can give is just play it until you get it 
and most of all, have fun with it :)


main riff:

E -----------------------------------------------|
A ---10-10---10-7-7------------------------------|
D ---------9---------9-7-9-9------10-10----------|
G ----------------------------7-9--------9-12----|


chorus:

E ---8----------8---5-----8---10-10-10-10-10-10-10-10------|
A ---------------------------------------------------------|
D ---------------------------------------------------------|
G ---------------------------------------------------------|

and that's basically it. listen to the song for the exact rhythm
            
Submit corrections

comments powered by Disqus
↑ Back to top | Los Campesinos Bass for It Started With A Mixx. Lyrics for acoustic guitar and electric guitar. Tablatures and chords are parodies/interpretations of the original songs. You may use it for private study, scholarship, research or language learning purposes only