>
 >
Heart Swells/Pacific Daylight Time

Heart Swells/Pacific Daylight Time Guitar Tabs

Los Campesinos - Heart Swells/Pacific Daylight Time chords, tabs, tablatures, lyrics

Guitar lessons | Add/correct | Request | Top 50 tabs Artists:  A B C D E F G H I J K L M N O P Q R S T U V W X Y Z 0-9

Heart Swells/Pacific Daylight Time Guitar Tabs – Los Campesinos

CD, Sheet music, Poster

Do you like Heart Swells/Pacific Daylight Time? Share with your friends now
Tabs
Intro

e|---------------------------------------------------|
B|-----4-----4-----4-----4------4-----4-----4-----4--|
G|---4-----4-----4-----4------4-----4-----4-----4----|
D|-2-----2-----2-----2-------------------------------|
A|--------------------------4-----4-----4-----4------|
E|---------------------------------------------------|

e|---------------------------------------------------|
B|-----4-----4-----4-----4------4-----4-----4-----4--|
G|---4-----4-----4-----4------4-----4-----4-----4----|
D|---------------------------------------------------|
A|-0-----0-----0-----0------2-----2-----2-----2------|
E|---------------------------------------------------|

Verse (a second guitar can play the F# you hear on the recording) 

e|---------------------------------------------------|
B|-----4-----4-----4-----4------4-----4-----4-----4--|
G|---4-----4-----4-----4------4-----4-----4-----4----|
D|-2-----2-----2-----2-------------------------------|
A|--------------------------4-----4-----4-----4------|
E|---------------------------------------------------|
 black holes,unraised moles,let's just call them freckles

e|---------------------------------------------------|
B|-----4-----4-----4-----4------4-----4-----4-----4--|
G|---4-----4-----4-----4------4-----4-----4-----4----|
D|---------------------------------------------------|
A|-0-----0-----0-----0------2-----2-----2-----2------|
E|---------------------------------------------------|
   hair cut, heart left,    happy on the west coast

e|---------------------------------------------------|
B|-----4-----4-----4-----4------4-----4-----4-----4--|
G|---4-----4-----4-----4------4-----4-----4-----4----|
D|-2-----2-----2-----2-------------------------------|
A|--------------------------4-----4-----4-----4------|
E|---------------------------------------------------|
  coat fell,  heart swells, draped across the sofa

e|---------------------------------------------------|
B|-----4-----4-----4-----4------4-----4-----4-----4--|
G|---4-----4-----4-----4------4-----4-----4-----4----|
D|---------------------------------------------------|
A|-0-----0-----0-----0------2-----2-----2-----2------|
E|---------------------------------------------------|
   sleep well, I feel,      you've ruined me forever 

e|---------------------------2--|
B|-----4-----4-----4-----4---3--|
G|---4-----4-----4-----4-----2--|
D|-2-----2-----2-----2-------0--|
A|------------------------------|
E|------------------------------|


D                                        G
I don't want to sound trite but you were perfect
                       D                      G
The way you look could seriously make nature dysmorphic
                      D                         G
I wish that you would kiss me 'til the point of paralysis
                   D                             G
The way I flail my arms in front of you, it just embarrasses
           Em           G
I'll never turn my body clock back
                    Em                G
And think about the things I'm glad I left out
                          D
Some things are best left unsaid. 





Comments


Popular Los Campesinos tabs & chords
It Started With A Mixx Bass Tabs
By Your Hand Chords
Sweet Dreams Sweet Cheeks Chords
We Are All Accelerated Readers Chords
We Are All Accelerated Readers 1 Chords
Knee Deep At Atp Tabs
You! Me! Dancing! 1 Tabs
By Your Hand Ukulele
Hello Sadness Ukulele
The Sea Is A Good Place To Think Of The Future Ukulele


Song lyrics



↑ Back to top | Tablatures and chords are parodies/interpretations of the original songs. You may use it for private study, scholarship, research or language learning purposes only
© 2014 AZChords.com Contact us | Privacy policy | DMCA | Add/correct tabs | Request tabs | Top 50 tabs