» » »

Los Campesinos, Dont Tell Me To Do The Maths Tabs (ver.1)

Artists:  A B C D E F G H I J K L M N O P Q R S T U V W X Y Z # 

Dont Tell Me To Do The Maths Tabs (ver.1)

Los Campesinos Tabs
Rating:
0/5 (0 votes)
Dont Tell Me To Do The Maths lessons Tabs too difficult? Try these video lessons and learn fast
                Los Campesinos!
Don't Tell Me To Do The Math(s)
Tuning: Standard

P.M - Palm Mute
b - Bend Note
r - Release Bend

(Intro - Play Twice)
e|-3------3--5------5--8-------8---3----------------------------------------|
B|-3------3--5------5--8-------8---3----------------------------------------|
G|-4------4--5------5--9-------9---4----------------------------------------|
D|-5------5--7------7--10------10--5----------------------------------------|
A|-5------5--7------7--10------10--5----------------------------------------|
E|-3------3--5------5--8-------8---3----------------------------------------|


(Riff 1 - Play Twice)
e|-15-----------------------------------------------------------------------|
B|----15---13-13-13-12-12--------------------------12-12-12-----------------|
G|------------------------14-14-12--------------------------14-12-----------|
D|------------------------------------14------------------------------------|
A|---------------------------------------14-12-14---------------------------|
E|--------------------------------------------------------------------------|


(Verse Part One - Play Twice)
e|----------------------------------------7-7---7-7-------------------------|
B|----------------------------------------7-7---7-7-------------------------|
G|----------------------------------------8-8---8-8-------------------------|
D|-5------------2------------7------------9-9---9-9-------------------------|
A|-5-(8 times)--2-(8 times)--7-(8 times)--9-9---9-9-------------------------|
E|-3------------0------------5------------7-7---7-7-------------------------|
  P.M          P.M          P.M


(Verse Part Two - Play Twice)
e|-3-------------5-------------8---------------3----------------------------|
B|-3-------------5-------------8---------------3----------------------------|
G|-4-------------5-------------9---------------4----------------------------|
D|-5-------------7-------------10--------------5----------------------------|
A|-5-(8 times)---7-(8 times)---10-(8 times)----5-(8 times)------------------|
E|-3-------------5-------------8---------------3----------------------------|


(Pre-chorus)
e|-0-0----7-----9--9---------------------------------------------------------|
B|-0-0----7-----9--9---------------------------------------------------------|
G|-1-1----8-----9--9-------14-14-14-14-14-14-14-14---------------------------|
D|-2-2----9-----11-11--------------------------------------------------------|
A|-2-2----9-----11-11--------------------------------------------------------|
E|-0-0----7-----9--9---------------------------------------------------------|


(Chorus - Play Twice)
e|---------------------------------------------------------------------------|
B|-----------------------------------15--------------------------------------|
G|-12----11---16----------12----11-------------------------------------------|
D|---------------------------------------------------------------------------|
A|---------------------------------------------------------------------------|
E|---------------------------------------------------------------------------|


(Riff 2)
e|-6-------5---------------------------------------------------------------|
B|-6-------5---------------------------------------------------------------|
G|-7-------6---------------------------------------------------------------|
D|-8-------7---------------------------------------------------------------|
A|-8-------7-(16 times)----------------------------------------------------|
E|-6-------5---------------------------------------------------------------|

Riff 1

Verse Part One

Verse Part Two

Pre-Chorus

Chorus

Riff 2

(Solo - Play Twice)

e|----------------------------------------------------------------------------|
B|-------------------------------------------15-------15----------------------|
G|-12-12-12----12-14-14-14-14-12-14-12-14b16----14b16----16r14-12-12----12----|
D|----------14-------------------------------------------------------14----14-|
A|----------------------------------------------------------------------------|
E|----------------------------------------------------------------------------|


Pre-Chorus

Chorus

Final chorus (cont.)
Play this 4 times
e|--------------------------------------------------|
B|--------------------------------------------------|
G|--12-12-12-12-12-12-12-12-11-11-11-11-16-16-16-16-|
D|--------------------------------------------------|
A|--------------------------------------------------|
E|--------------------------------------------------|

e|--------------------------------------------------|
B|--------------------------------------15-15-15-15-|
G|--12-12-12-12-12-12-12-12-11-11-11-11-------------|
D|--------------------------------------------------|
A|--------------------------------------------------|
E|--------------------------------------------------|


Riff 2

Riff 1

End on:
e|--3---]
B|--3---]
G|--4---]
D|--5---]
A|--5---]
E|--3---]
            

comments powered by Disqus
↑ Back to top | Los Campesinos Tabs for Dont Tell Me To Do The Maths. Lyrics for acoustic guitar and electric guitar. Tablatures and chords are parodies/interpretations of the original songs. You may use it for private study, scholarship, research or language learning purposes only