» » »

Los Bunkers, Las Cosas Que Cambi Y Dej Por Ti Tabs (ver.1)

Artists:  A B C D E F G H I J K L M N O P Q R S T U V W X Y Z # 

Las Cosas Que Cambi Y Dej Por Ti Tabs (ver.1)

Los Bunkers Tabs
 Rating:
4/5 (4 votes)
Las Cosas Que Cambi Y Dej Por Ti lessons Tabs too difficult? Try these video lessons and learn fast
                Los Bunkers > Las Cosas Que Cambié Y Dejé Por Ti

Intro:

   G, D7 (x2)

Verso 01:

   G      D7      G      D7
   Si pudiera sacarlo de ella
   Em           Bm           D - Dsus 
   lo podría guardar en un cajón.

Verso 02:

   G      D7      G      D7
   Por las noches abriría los broches
   Em           Bm
   Y podría ver, al fin,
   Dm            C
   el rostro que me hizo feliz
   Cm     G      D7      G
   Y podría ver morir la pena en mi.

Coro 01:
            D7        G
   No sabes cómo la amo yo,
            D7        G
   no sabes qué me enamoró,
            D7        Em
   no sabes cuánto de ella vive aquí,
   A        Bm        A        Cm        D7
   las cosas que cambié y dejé por ti.

Verso 03:

   G      D7      G      D7
   Si pudiera sacarlo de ella
   Em           Bm           D7   G  
   lo podría guardar en un cajón.

Solo:

          G                 D7              G              D7
e-----------------|-----------------|-------------------|-----------------|
B-----------------|-----------------|-------------------|-----------------|
G-2/4-4-4-2-2-2-2-|-5-5-5-5-3-3-3-3-|-2/4-4-4-4-2-2-2-2-|-5-5-5-5-3-3-3-3-|
D-----------------|-----------------|-------------------|-----------------|
A-----------------|-----------------|-------------------|-----------------|
E-----------------|-----------------|-------------------|-----------------|

     Em          Bm             D               Dsus
e---3-----3-|-2-----2---|---5-----5-----5-|-6--6-6-6-6---|
B-----5-----|---3------3/7----7-----7-----|-7--7-7-7-7---|
G-------4---|-----4-----|-------7-----7---|-7--7-7-7-7---|
D-----------|-----------|-----------------|--------------|
A-----------|-----------|-----------------|--------------|
E-----------|-----------|-----------------|--------------|

     G              D7             G             D7
e-------------|--------12---|-------------|--------12---0/
B---12--------|-------------|---12--------|--------------|
G--------12---|---11--------|--------12---|---11---------|
D-------------|-------------|-------------|--------------|
A-------------|-------------|-------------|--------------|
E-------------|-------------|-------------|--------------|

     Em                  Bm                 D7                G
e/12------12-------|---22----22----|-------------------|--------------|
B-----12------12--5/12----22----22-|------7-----7/9--10/12------------|
G------------------|---------------|-5/7-----7---------|--------------|
D------------------|---------------|-------------------|--------------|
A------------------|---------------|-------------------|--------------|
E------------------|---------------|-------------------|--------------|

Coro 02:
            D7        G
   No sabes cómo la amo yo,
            D7        G
   no sabes qué me enamoró,
            D7        Em
   no sabes cuánto de ella vive aquí,
   A        Bm        A        Cm        D7
   las cosas que cambié y dejé por ti.

Verso 03:

   G      D7      G      D7
   Por las noches abriría los broches
   Em           Bm
   Y podría ver, al fin,
   Dm            C
   el rostro que me hizo feliz
   Cm     G      D7      G
   Y podría ver morir la pena en mi.
   D7, G, D7, G 

(Solo)

outro:

   G, D7, G, D7
   Em, Bm, Dm, C,
   Cm, G, D7, G,
   D7, G, D7, G 
            
Submit corrections

comments powered by Disqus
↑ Back to top | Los Bunkers Tabs for Las Cosas Que Cambi Y Dej Por Ti. Lyrics for acoustic guitar and electric guitar. Tablatures and chords are parodies/interpretations of the original songs. You may use it for private study, scholarship, research or language learning purposes only