>
 >
Las Cosas Que Cambie Y Deje Por Ti

Las Cosas Que Cambie Y Deje Por Ti Bass Tabs

Los Bunkers - Las Cosas Que Cambie Y Deje Por Ti chords, tabs, tablatures, lyrics

Guitar lessons | Add/correct | Request | Top 50 tabs Artists:  A B C D E F G H I J K L M N O P Q R S T U V W X Y Z 0-9

Las Cosas Que Cambie Y Deje Por Ti Bass Tabs – Los Bunkers

CD, Sheet music, Poster

Do you like Las Cosas Que Cambie Y Deje Por Ti? Share with your friends now
Bass Tabs
Las Cosas Que Cambie y Deje Por Ti  Los Bunkers

Intro
G|----------------------------|
D|----------------------------|
A|----------------------------| X2
E|-3--3-33/1010-10-10--10--|

Verso 1
G|-----------------------------------|---------------------------------------|
D|-----------------------------------|---------------------------------------|
A|-------------------------------(x2)|---7--7-7--7-7--------------5-5-5-5-5|
E|-3--3-3--3-3/10--10-10--10-10------|----------------7--7-7--7-7------------|

G|-----------------------------------|----------------------------------------------------|
D|-----------------------------------|----------------------------------------------------|
A|-------------------------------(x2)|---7--7-7--7-7--------------5-5-5-5-5\3-3-3-3-3-|
E|-3--3-3--3-3/10--10-10--10-10------|----------------7--7-7--7-7-------------------------|

----------------------------------------------|
----------------------------------------------|
----------------------------------------------|
-8--8-8--8-8/3--3-3--3-3\10--10-10--10-10-3~-|

Coro
G|-------------------------------------------------------------------------------------|
D|-------------------------------------------------------------------------------------|
A|-5-5-5-5-5-------------5-5-5-5-5-------------5--5-5--5-5-7--7-7--7-7-------------|
E|-------------3-3-3--3-3-------------3-3-3--3-3-------------------------5--5-5--5-5-|

----------------------------------------------------|
----------------------------------------------------|
-------------------------3--3-3--3-3--5--5-5--5-5---|
-7--7-7--7-7-7-6-5--5--5----------------------------|

Verso 2
G|-----------------------------------|-------------------------------------------|
D|-----------------------------------|-------------------------------------------|
A|-------------------------------(x2)|---7--7-7--7-7--------------5-5-5-5-5----|
E|-3--3-3--3-3/10--10-10--10-10------|----------------7--7-7--7-7-------------3--|

Solo
G|------------------------------------------------------------------------------------|
D|------------------------------------------------------------------------------------|
A|-------------------------------(x2)---7--7-7--7-7--------------5-5-5-5-5-(x2)-----|
E|-3--3-3--3-3/10--10-10--10-10----------------------7--7-7--7-7-------------------3~-|

Coro
G|-------------------------------------------------------------------------------------|
D|-------------------------------------------------------------------------------------|
A|-5-5-5-5-5-------------5-5-5-5-5-------------5--5-5--5-5-7--7-7--7-7-------------|
E|-------------3-3-3--3-3-------------3-3-3--3-3-------------------------5--5-5--5-5-|

----------------------------------------------------|
----------------------------------------------------|
-------------------------3--3-3--3-3--5--5-5--5-5---|
-7--7-7--7-7-7-6-5--5--5----------------------------|

Verso 3
G|-----------------------------------|----------------------------------------------------|
D|-----------------------------------|----------------------------------------------------|
A|-------------------------------(x2)|---7--7-7--7-7--------------5-5-5-5-5\3-3-3-3-3-|
E|-3--3-3--3-3/10--10-10--10-10------|----------------7--7-7--7-7-------------------------|

------------------------------------------------------------------------|
------------------------------------------------------------------------|
------------------------------------------------------------------------|
-8--8-8--8-8\3--3-3--3-3/10--10-10--10-10\3-3-3-3-3/10--10-10--10-10\-|

----------------------------------|
----------------------------------|
----------------------------------|
3-3-3-3-3/10--10-10--10-10---3~-|

Solo
G|-------------------------------------------------------------------------------|
D|-------------------------------------------------------------------------------|
A|-------------------------------(x2)---7--7-7--7-7--------------5-5-5-5-5-----|  (x2)
E|-3--3-3--3-3/10--10-10--10-10----------------------7--7-7--7-7-----------------|

Outro
G|-------------|
D|-------------|
A|-------------|
E|-3--3-3--3-3-|

G|-----------------------------------|----------------------------------------------------|
D|-----------------------------------|----------------------------------------------------|
A|-------------------------------(x2)|---7--7-7--7-7--------------5-5-5-5-5\3-3-3-3-3-|
E|-3--3-3--3-3/10--10-10--10-10------|----------------7--7-7--7-7-------------------------|

-------------|-------------------------------------|
-------------|-------------------------------------|
-------------|------------------------------(x3)---|
-8--8-8--8-8/|3--3-3--3-3\10--10-10--10-10/-----3~-|

es mi primer tab... asi que si hay errores, sorry





Comments


Popular Los Bunkers tabs & chords
Ahora Que No Estas Bass Tabs
Mino Bass Tabs
No Me Hables De Sufrir Bass Tabs
El Dia Feliz Chords
La Exiliada Del Sur Chords
Nada Mas De Mi Chords
Nada Nuevo Bajo El Sol Chords
Las Cosas Que Cambi Y Dej Por T Tabs
SueñO Con Serpientes Tabs
Quien Fuera Ukulele


Song lyrics



↑ Back to top | Tablatures and chords are parodies/interpretations of the original songs. You may use it for private study, scholarship, research or language learning purposes only
© 2014 AZChords.com Contact us | Privacy policy | DMCA | Add/correct tabs | Request tabs | Top 50 tabs