» » »

Los Bunkers, Entre Mis Brazos Bass tabs (ver.1)

Artists:  A B C D E F G H I J K L M N O P Q R S T U V W X Y Z # 

Entre Mis Brazos Bass tabs (ver.1)

Los Bunkers Tabs
 Rating:
4/5 (4 votes)
Entre Mis Brazos lessons Tabs too difficult? Try these video lessons and learn fast
                Afinacion normal del bajo
Sol Re La Mi

Intro:

00:16
--------------------------------------------------|
--------------------------------------------------|
-1--1-0--0----------------------------------------|
-------------3--3-1--1--4--4-5--5-7--7-0----------|
La#    La    Sol   Fa   Sol#  La   Si  Mi

Primera Parte:

00:24
Siento que en
las noches
soy un               Ciego en busca de un cielo
-------------------------------------------------------|
-------------------------------------------------------|
-0--0-0---0--0-0---0-1-0-------------------------------|
--------0--------0-------3-1-4--4-0--0-----------------|
LA                  La# La Sol Fa Sol# Mi

00:31
Marcho lentamente
por los              Sueños, pero no te veo
-------------------------------------------------------|
-------------------------------------------------------|
-0--0-0---0--0-0---0-1-0-------------------------------|
--------0--------0-------3-1-4--4-0--0-----------------|
LA                  La# La Sol Fa Sol# Mi


00:38
La piel de la
Verdad             Se estremece cuando oye tu voz
------------------------------------------------------------------|
-0--2-3-0-----2-3------2-3-----3-2------------------------------2-|
----------4-------4-3------3-2-----3---0-0-0-0-0-0-0-0-0---0-2-3--|
---------------------------------------------------------0--------|
Re  Mi Fa Do#   Do# Do   Do Si    Do   La                  Si Do Mi

00:49
Tu imagen
seguirá             Pincelada con dedicación   por Dios
--------------------------------------------------------|
-0--2-3-0-----2-3------2-3-----3-2----------------------|
----------4-------4-3------3-2-----3---0-2-3-5-7--7-7-7-|
--------------------------------------------------------|
Re  Mi Fa Do#   Do# Do   Do Si    Do  La Si Do Re Mi

01:00
Ooh Noo
--------------------------------------------------|
--------------------------------------------------|
-1--1-0--0----------------------------------------|
-------------3--3-1--1--4--4-5--5-7--7-0----------|
La#    La    Sol   Fa   Sol#  La   Si  Mi

01:08
Mira lo que vino
a hacer mi          vida    ohh oh
-------------------------------------------------------|
-------------------------------------------------------|
-0--0-0---0--0-0---0-1-0-------------------------------|
--------0--------0-------3-1-4--4-0--0-----------------|
LA                  La# La Sol Fa Sol# Mi

01:15
Una Calle Sucia
Sin                 Salida
-------------------------------------------------------|
-------------------------------------------------------|
-0--0-0---0--0-0---0-1-0-------------------------------|
--------0--------0-------3-1-4--4-0--0-----------------|
LA                  La# La Sol Fa Sol# Mi

01:21
Mi mano da
el compas             De tu larga espera por el sol
------------------------------------------------------------------|
-0--2-3-0-----2-3------2-3-----3-2------------------------------2-|
----------4-------4-3------3-2-----3---0-0-0-0-0-0-0-0-0---0-2-3--|
---------------------------------------------------------0--------|
Re  Mi Fa Do#   Do# Do   Do Si    Do   La                  Si Do Mi

01:32
Tras Mi
Mascara hay mas    Que recuerdo duros de olvidar  Ohh Noo
--------------------------------------------------------|
-0--2-3-0-----2-3------2-3-----3-2----------------------|
----------4-------4-3------3-2-----3---0-2-3-5-7--7-7-7-|
--------------------------------------------------------|
Re  Mi Fa Do#   Do# Do   Do Si    Do  La Si Do Re Mi

01:41
Ooh Noo
--------------------------------------------------|
--------------------------------------------------|
-1--1-0--0----------------------------------------|
-------------3--3-1--1--4--4-5--5-7--7-0----------|
La#    La    Sol   Fa   Sol#  La   Si  Mi


Coro:

01:51
Tu vida  mi vida    no se   pondrán de acuerdo
------------------------------------------------------|
-------------------------4----------------------------|
-0--0----------------------------4--4---4-------------|
----------0--0------2--2---2----------4---------------|
 La       Mi           Fa#        Do#

01:58
Sabes que       no podrás   dormir entre mis brazos otra vez
------------------------------------------------------2-4--|
-----------------------------------------2-3-5-------------|
-------2------------1-4-----2-4-5--------------------------|
-0-2-3----------2-4----------------------------------------|
 Mi   Si       Fa#   Do#   Si Do# Re   Mi Fa Sol    La Si


02:05
Tu vida  mi vida    no se   pondrán de acuerdo
------------------------------------------------------|
-7--7--------------------4----------------------------|
----------7--7-------------------4--4---4-------------|
--------------------2--2---2----------4---------------|
 La       Mi           Fa#        Do#

02:13
Cuanto nos      pueden defraudar los sueños que tuvimos
------------------------------------------------------2-4--|
-----------------------------------------2-3-5-------------|
-------2------------1-4-----2-4-5--------------------------|
-0-2-3----------2-4----------------------------------------|
 Mi   Si       Fa#   Do#   Si Do# Re   Mi Fa Sol    La Si

02:19
Ayeeeer    oh oh..
-------------------------------------------|
-8--8-7--7---5--5-3--3--6--6-7--7-9--9-----|
---------------------------------------7---|
-------------------------------------------|
La#    La    Sol   Fa   Sol#  La   Si  Mi


Segunda Parte:

02:27					02:34
Mira lo que vino			Una Calle Sucia
a hacer mi        vida    ohh oh	Sin               Salida   (no puedo esperar)
-------------------------------------   ---------------------------------------------|
-------------------------3-----------   -------------------------3-------------------|
-0--0-2--2-3--0-3--1-3-5---7-5-3-2---   -0--0-2--2-3--0-3--1-3-5---7-5-3-2-----------|
-------------------------------------   ---------------------------------------------|
La   Si   Do     La# Do RE Mi Re Do Si   La   Si   Do    La# Do RE Mi Re Do Si

02:42
Mi Mano Da
El Compas             De tu larga espera por el Sol
------------------------------------------------------------------|
-0--2-3-0-----2-3------2-3-----3-2------------------------------2-|
----------4-------4-3------3-2-----3---0-0-0-0-0-0-0-0-0---0-2-3--|
---------------------------------------------------------0--------|
Re  Mi Fa Do#   Do# Do   Do Si    Do   La                  Si Do Mi

02:51
Tras Mi
Mascara hay mas    Que recuerdo duros de olvidar  Ohh Noo
----------------------------------------------------------|
-0--2-3-0-----2-3------2-3-----3-2------------------------|
----------4-------4-3------3-2-----3---0-2-3-5-7--7-7-7---|
----------------------------------------------------------|
Re  Mi Fa Do#   Do# Do   Do Si    Do  La Si Do Re Mi


Ooh Noo
--------------------------------------------------|
--------------------------------------------------|
-1--1-0--0-----------------------------7-7--------|
-------------3--3-1--1--4--4-5--5-7--7------------|


Coro:

03:10
Tu vida  mi vida    no se   pondrán de acuerdo
------------------------------------------------------|
-7--7--------------------4----------------------------|
----------7--7-------------------4--4---4-------------|
--------------------2--2---2----------4---------------|
 La       Mi           Fa#        Do#

03:17
Sabes que       no podrás   dormir entre mis brazos otra vez
------------------------------------------------------2-4--|
-----------------------------------------2-3-5-------------|
-------2------------1-4-----2-4-5--------------------------|
-0-2-3----------2-4----------------------------------------|
 Mi   Si       Fa#   Do#   Si Do# Re   Mi Fa Sol    La Si


03:25
Tu vida  mi vida    no se   pondrán de acuerdo
------------------------------------------------------|
-7--7--------------------4----------------------------|
----------7--7-------------------4--4---4-------------|
--------------------2--2---2----------4---------------|
 La       Mi           Fa#        Do#

03:32
Cuanto nos      pueden defraudar los sueños que tuvimos
------------------------------------------------------2-4--|
-----------------------------------------2-3-5-------------|
-------2------------1-4-----2-4-5--------------------------|
-0-2-3----------2-4----------------------------------------|
 Mi   Si       Fa#   Do#   Si Do# Re   Mi Fa Sol    La Si

03:38
Ayer
-------------------------------------------------------|
-------------------------------------------------------|     Se repite 2 veces
-0--0-0---0--0-0---0-1-0-------------------------------|
--------0--------0-------3-1-4--4-0--0-----------------|
LA                  La# La Sol Fa Sol# Mi

Parte Final:

03:54
---------------------------------------|
-----------------------3---------------|   Se Repite 8 Veces
-0-2-3-2-0-2-3-2-1-3-5---7-5-3-2-------|
---------------------------------------|
La            La#      Mi


Ale
            
Submit corrections

comments powered by Disqus
↑ Back to top | Los Bunkers Bass for Entre Mis Brazos. Lyrics for acoustic guitar and electric guitar. Tablatures and chords are parodies/interpretations of the original songs. You may use it for private study, scholarship, research or language learning purposes only