>
 >
Showing Bones

Showing Bones Guitar Tabs

Lorene Drive - Showing Bones chords, tabs, tablatures, lyrics

Guitar lessons | Add/correct | Request | Top 50 tabs Artists:  A B C D E F G H I J K L M N O P Q R S T U V W X Y Z 0-9

Showing Bones Guitar Tabs – Lorene Drive

CD, Sheet music, Poster

Do you like Showing Bones? Share with your friends now
Tabs
[Intro]
e|--------------------------------------------------------------------|
B|--------------------------------------------------------------------|
G|---------5--4--3------------5--4--3-----------5--4--3---------------|
D|------------------xx-----------------------------------xx-----------|
A|3-3-1-3-----------xx-3-6-3-----------3-3-1-3-----------xx-3-1-3-----|
E|3-3-1-3-----------xx-3-6-3-----------3-3-1-3-----------xx-3-1-3-----|


[Verse]
e|---|--------------------------------|
B|---|--------------------------------|
G|---|--------------------------------|
D|-1-|-3-1-3---------------------6----| x2
A|-1-|-3-1-3---------------------6----|
E|-1-|-3-1-3---------------------6----| 


e|--------------------------------------------------------|
B|--------------------------------------------------------|
G|--------------------------------------------------------|
D|8-6-8-----8----------------8-6-8-------8---8-8-6--------|
A|8-6-8-----8----------------8-6-8-------8---8-8-6-----1--|
E|8-6-8-----8----------------8-6-8-------8---8-8-6-6b--1--|

e|--------------------------------------------|
B|--------------------------------------------|
G|--------------------------------------------|
D|3-1-3-xxx-3-xx-3-6---3-1-3-xxx-3-xx-3---6---|
A|3-1-3-xxx-3-xx-3-6---3-1-3-xxx-3-xx-3---6---|
E|3-1-3-xxx-3-xx-3-6---3-1-3-xxx-3-xx-3---6---|

e|--------------------------------------------|
B|--------------------------------------------|
G|--------------------------------------------|
D|8-6-8-xxx-8-xxxxxxx---66666666-5555-4444----|
A|8-6-8-xxx-8-xxxxxxx---66666666-5555-4444----|
E|8-6-8-xxx-8-xxxxxxx---66666666-5555-4444----|


[Bridge]
e|--------------------------------|
B|--------------------------------|
G|---------5-4-3------------------|
D|--------------------------6-1---|
A|xx-3-6-3------------------6-1---|
E|xx-3-6-3------------------6-1---|


[Chorus]
e|-----------------------------------------------------------------------|
B|-----------------------------------------------------------------------|
G|---------5--4--3------------5--4--3-----------5--4--3------------------|
D|------------------xx-----------------------------------xx---------6--1-|
A|3-3-1-3-----------xx-3-6-3-----------3-3-1-3-----------xx-3-6-3---6--1-|
E|3-3-1-3-----------xx-3-6-3-----------3-3-1-3-----------xx-3-6-3---6--1-|

e|-----------------------------------------------------------------------|
B|-----------------------------------------------------------------------|
G|---------5--4--3------------5--4--3-----------5--4--3------------------|
D|------------------xx-----------------------------------xx--------3-4-5-|
A|3-3-1-3-----------xx-3-6-3-----------3-3-1-3-----------xx-3-6-3--1-2-3-|
E|3-3-1-3-----------xx-3-6-3-----------3-3-1-3-----------xx-3-6-3--------|


[Verse]
e|--------------------------------------------|
B|--------------------------------------------|
G|--------------------------------------------|
D|3-1-3-xxx-3-xx-3-6---3-1-3-xxx-3-xx-3---6---|
A|3-1-3-xxx-3-xx-3-6---3-1-3-xxx-3-xx-3---6---|
E|3-1-3-xxx-3-xx-3-6---3-1-3-xxx-3-xx-3---6---|

e|-----------------------------------------------|
B|-----------------------------------------------|
G|-----------------------------------------------|
D|8-6-8-----8----------8-6-8-----8---88-6--------|
A|8-6-8-----8----------8-6-8-----8---88-6-----1--|
E|8-6-8-----8----------8-6-8-----8---88-6-6b--1--|


[Half-time Breakbeat]
e|-------------------------------------------------------|
B|-------------------------------------------------------|
G|-------------------------------------------------------|
D|----6b-------------6-3--6b--8b-8b-8b-8b------------8---|
A|--------6b--8b--6b-6-3-------------------8-6-8-----8---|
E|3b-----------------6-3-------------------8-6-8--xx-8---|

e|-------------------------------------------------------|
B|-------------------------------------------------------|
G|-------------------------------------------------------|
D|----------------------------------66666666-5555-4444---|
A|----------------------------------66666666-5555-4444---|
E|----------------------------------66666666-5555-4444---|

[Bridge]
e|--------------------------------|
B|--------------------------------|
G|---------5-4-3------------------|
D|--------------------------6-1---|
A|xx-3-6-3------------------6-1---|
E|xx-3-6-3------------------6-1---|


[Chorus]
e|-----------------------------------------------------------------------|
B|-----------------------------------------------------------------------|
G|---------5--4--3------------5--4--3-----------5--4--3------------------|
D|------------------xx-----------------------------------xx---------6--1-|
A|3-3-1-3-----------xx-3-6-3-----------3-3-1-3-----------xx-3-6-3---6--1-|
E|3-3-1-3-----------xx-3-6-3-----------3-3-1-3-----------xx-3-6-3---6--1-|

e|-----------------------------------------------------------------------|
B|-----------------------------------------------------------------------|
G|---------5--4--3------------5--4--3-----------5--4--3------------------|
D|------------------xx-----------------------------------xx--------3-4-5-|
A|3-3-1-3-----------xx-3-6-3-----------3-3-1-3-----------xx-3-6-3--1-2-3-|
E|3-3-1-3-----------xx-3-6-3-----------3-3-1-3-----------xx-3-6-3--------|

e|-----------------------------------------------------------------------|
B|-----------------------------------------------------------------------|
G|-----------------------------------------------------------------------|
D|------------------------------------------------------------------5-4-3|
A|------------------------------------------------------------------3-2-1|
E|-----------------------------------------------------------------------|

e|-----------------------------------------------------------------------|
B|-----------------------------------------------------------------------|
G|-----------------------------------------------------------------------|
D|-----------------------------------------------------------------6-5-4-|
A|-----------------------------------------------------------------6-5-4-|
E|-----------------------------------------------------------------6-5-4-|

[Breakdown]
e|----------------------------------------------------------------|
B|----------------------------------------------------------------|
G|----------------------------------------------------------------|
D|-------------xx---------------xx---------------xx--------6-5-4--| x2
A|--6----------xx----6----------xx----6----------xx----6---6-5-4--|
E|3---3-1b-3b--xx--3---3-1b-3b--xx--3---3-1b-3b--xx--3---3-6-5-4--|

[Bridge 2]
e|-----------------------------------|
B|-----------------------------------|
G|-------5-4-3-------------5-4-------|
D|3----------------3-3---------3-3---|
A|3----------------3-3---------3-3---|
E|3----------------3-3---------3-3---|

[Chorus/Outro]
e|------------------------------------------------------------------------|
B|------------------------------------------------------------------------|
G|---------5--4--3------------5--4--3-----------5--4--3-------------------|
D|------------------xx-----------------------------------xx---------------|
A|3-3-1-3-----------xx-3-6-3-----------3-3-1-3-----------xx-3-6-3---------|
E|3-3-1-3-----------xx-3-6-3-----------3-3-1-3-----------xx-3-6-3-6b6b6b6b|

e|-----------------------------------------------------------------------|
B|-----------------------------------------------------------------------|
G|---------5--4--3------------5--4--3-----------5--4--3------------------|
D|------------------xx-----------------------------------xx---------6--1-|
A|3-3-1-3-----------xx-3-6-3-----------3-3-1-3-----------xx-3-6-3---6--1-|
E|3-3-1-3-----------xx-3-6-3-----------3-3-1-3-----------xx-3-6-3---6--1-|

e|-----------------------------------------------------------------------|
B|-----------------------------------------------------------------------|
G|---------5--4--3------------5--4--3-----------5--4--3------------------|
D|------------------xx-----------------------------------xx--------3-4-5-|
A|3-3-1-3-----------xx-3-6-3-----------3-3-1-3-----------xx-3-6-3--1-2-3-|
E|3-3-1-3-----------xx-3-6-3-----------3-3-1-3-----------xx-3-6-3--------|





Comments


Popular Lorene Drive tabs & chords
A Kiss Wont Make This Better Intro Tabs
God Knows I Love You Kid Tabs
Kill Your Lover Tabs
Let It Go Tabs
Let It Go 1 Tabs
Let It Go Intro Tabs


Song lyrics



↑ Back to top | Tablatures and chords are parodies/interpretations of the original songs. You may use it for private study, scholarship, research or language learning purposes only
© 2014 AZChords.com Contact us | Privacy policy | DMCA | Add/correct tabs | Request tabs | Top 50 tabs