>
 >
Let It Go 1

Let It Go 1 Guitar Tabs

Lorene Drive - Let It Go 1 chords, tabs, tablatures, lyrics

Guitar lessons | Add/correct | Request | Top 50 tabs Artists:  A B C D E F G H I J K L M N O P Q R S T U V W X Y Z 0-9

Let It Go 1 Guitar Tabs – Lorene Drive

CD, Sheet music, Poster

Do you like Let It Go 1? Share with your friends now
TabsTabs v2
Lorene Drive – Let It Go

Its alright,no one attempted to tab this yea so I took a try if you see
anything wrong please comment and correct it.
Its in pieces so listen to the song and it’ll all make sense

There are not define strumming patterns 
 

~ vibrato

Intro
e|--------------------------------------------------|
B|--------------------------------------------------|
G|--------------------------------------------------|  x2
D|--------------------------------------------------|
A|-----4-6-7-6-4---4-6-7-6-4---4-6-7-6-4------------|
D|-6-4----------0-7---------0-4----------7777-6-7---|

Verse
e|-----------------------------------------------------|    
B|-----------------------------------------------------|   
G|-----------------------------------------------------| x2
D|-7-4--------------6--------------4-------------------|    
A|-7-4-777666444666-6-777666444666-4-777666444666777666|    
D|-7-4--------------6--------------4-------------------|    

Verse Ending

e|----both--|  |--gtr1---|  |--gtr2--------------|   
B|--guitars-|  |---------|  |--------------------|
G|----------|  |---------|  |--------------------|
D|-7-4—-7-6-|  |-x-6-4---|  |--------------------|
A|-7-4—-7-6-|  |-x-6-4---|  |-777666444666777666-|
D|-7-4—-7-6-|  |-x-6-4---|  |--------------------|

e|----both--|  |--gtr1-|  |--gtr2--------------|   
B|--guitars-|  |-------|  |--------------------|
G|----------|  |-------|  |--------------------|
D|-7-4—-7-6-|  |-6-4---|  |--------------------|
A|-7-4—-7-6-|  |-6-4---|  |-777666444666777666-|
D|-7-4—-7-6-|  |-6-4---|  |--------------------|

Chorus
e|-----------------------------------------|    
B|-----------------------------------------|   
G|--6-9------------------------------------| 
D|--6-9-7-9-11-9-7777-77-11-77-9-777-999---|
A|--4-7-7-9-11-9-7777-77-11-77-9-777-999---|
D|------7-9-11-9-7777-77-11-77-9-777-999---|
PM                                  ##      ##

Gtr 2 parts before PM
Cant really hear the last part but this might be close
e|-----------------------------------------------------------------|
B|-----------------------------------------------------------------|
G|--------------------------------------------------9----9-----9---|  
D|----777666444666777666/12~-77-11-77-9-777-999---7----7----7---7--|
A|-—-------------------------77-11-77-9-777-999-8----8----8--------|
D|---------------------------77-11-77-9-777-999--------------------|
PM                                              ##       ##

Break comes into song towards end of the chorus
e|-----------| 
B|-----------|
G|-------9---|
D|--7--7--7--|
A|-8—-8------|
D|-----------|

e|--------------|
B|----------10--|
G|-------9------| 
D|--7--7--7-----|
A|-8—-8---------|
D|--------------|

Solo 
e|-------------------------------------------|
B|-------------------------------------------|
G|-------------------------------------------|  
D|-8-6-44~-6-7-6-4-2-4-6-4-2-4-6-2-----------|
A|-—-----------------------------------------|
D|-------------------------------------------|

After Solo
e|-----------|
B|-----------|
G|-5-7-9-11--|  
D|-x-x-x-x---|
A|-3—5-7-9---|
D|-----------|

Break
e|---8-----------------|
B|---8-----------------|
G|---8-----------------|  
D|---9----88-8---9-----|
A|--—7----88-8---7-----|
D|---8----88-8---0-----|
PM        ##

Then this is the chord palm muted
e|------8---------|
B|------8---------|
G|------8---------|  
D|------9---------|
A|-—----7---------|
D|------8---------|

Right Before the last Chorus
e|-----------------|
B|----------10-----|
G|------9--9--9----|  
D|----7--7---------|
A|-—8--------------|
D|-----------------|

And that’s it a great song by an amazing band





Comments


Popular Lorene Drive tabs & chords
A Kiss Wont Make This Better Intro Tabs
God Knows I Love You Kid Tabs
Kill Your Lover Tabs
Let It Go Tabs
Let It Go Intro Tabs
Showing Bones Tabs


Song lyrics



↑ Back to top | Tablatures and chords are parodies/interpretations of the original songs. You may use it for private study, scholarship, research or language learning purposes only
© 2014 AZChords.com Contact us | Privacy policy | DMCA | Add/correct tabs | Request tabs | Top 50 tabs