>
 >
Let It Go

Let It Go Guitar Tabs

Lorene Drive - Let It Go chords, tabs, tablatures, lyrics

Guitar lessons | Add/correct | Request | Top 50 tabs Artists:  A B C D E F G H I J K L M N O P Q R S T U V W X Y Z 0-9

Let It Go Guitar Tabs – Lorene Drive

CD, Sheet music, Poster

Do you like Let It Go? Share with your friends now
TabsTabs v2
Yo, only guitar part one for now cos i can;t be bothered to figure out the 2nd guitar 
yet but i think this is pretty much perfect so rate it if  ur nice....

Intro

D#|-----------------------------------------------------------|
A#|-----------------------------------------------------------|
F#|-----------------------------------------------------------|
C#|-----------------------------------------------------------|
G#|-------5-8-5-------------5---------5-8-5-------------------|
C#|-7-0-7-------7-0-0-5-7-8---7-8-0-8-------8-5-0-5-7-8-7-5---|

D#|-----------------------------------------------------------|
A#|-----------------------------------------------------------|
F#|-----------------------------------------------------------|
C#|-----------------------------------------------------------|
G#|-------5-8-5-------------5---------5-8-5-------------------|
C#|-7-0-7-------7-0-0-5-7-8---7-8-0-8-------0-5-0-5-7-8-7-5-7-|

Verse

D#|-----------------------------------------------------------|
A#|-----------------------------------------------------------|
F#|-----------------------------------------------------------|
C#|-7-0-7---3-0-3---55555555555-------------------------------|   x 2
G#|-7-0-7---3-0-3---55555555555-------------------------------|
C#|-7-0-7---3-0-3---55555555555-------------------------------|

D#|-----------------------------------------------------------|
A#|-----------------------------------------------------------|
F#|-----------------------------------------------------------|
C#|-7-0-7---3-0-3---0---55555555555---------------------------|   x 2
G#|-7-0-7---3-0-3---0---55555555555---------------------------|
C#|-7-0-7---3-0-3---0---55555555555---------------------------|
                   *

Chorus

D#|-----------------------------------------------------------|
A#|-----------------------------------------------------------|
F#|-----------------------------------------------------------|
C#|-0-0-0-0-0-0-0-0-0-0-0-0--8-8-8-8-8-8--10-10-10-10-10-10---|
G#|-0-0-0-0-0-0-0-0-0-0-0-0--8-8-8-8-8-8--10-10-10-10-10-10---|
C#|-0-0-0-0-0-0-0-0-0-0-0-0--8-8-8-8-8-8--10-10-10-10-10-10---|

D#|-----------------------------------------------------------|
A#|-----------------------------------------------------------|
F#|-----------------------------------------------------------|
C#|-0-0-0-0-0-0--10-10-10-10-10-10--8-8-8-8-8-8-8-8-8-8-8-8---|
G#|-0-0-0-0-0-0--10-10-10-10-10-10--8-8-8-8-8-8-8-8-8-8-8-8---|
C#|-0-0-0-0-0-0--10-10-10-10-10-10--8-8-8-8-8-8-8-8-8-8-8-8---|

D#|------------------------------------------------------------|
A#|------------------------------------------------------------|
F#|------------------------------------------------------------|
C#|-0-0-0--0-0-0--0-0-0--0-0----8-8-8-8-8-8--10-10-10-10-10-10-|
G#|-0-0-0--0-0-0--0-0-0--0-0----8-8-8-8-8-8--10-10-10-10-10-10-|
C#|-0-0-0--0-0-0--0-0-0--0-0----8-8-8-8-8-8--10-10-10-10-10-10-|
    * *    * *    * *    * *

D#|-----------------------------------------------------------|
A#|-----------------------------------------------------------|
F#|-----------------------------------------------------------|
C#|-0-0-0-0-0-0--10-10-10-10-10-10--8-8-8-8-8-8-8-8-8-8-8-8---|
G#|-0-0-0-0-0-0--10-10-10-10-10-10--8-8-8-8-8-8-8-8-8-8-8-8---|
C#|-0-0-0-0-0-0--10-10-10-10-10-10--8-8-8-8-8-8-8-8-8-8-8-8---|

D#|-----------------------------------------------------------|
A#|-----------------------------------------------------------|
F#|-----------------------------------------------------------|
C#|-10-10-10-10-10-10-10-10-10-10-10-10-10--------------------|
G#|-10-10-10-10-10-10-10-10-10-10-10-10-10--------------------|
C#|-10-10-10-10-10-10-10-10-10-10-10-10-10--------------------|


Bridge

D#|-----------------------------------------------------------|
A#|-----------------------------------------------------------|
F#|-----------------------------------------------------------|
C#|-----------------------------------------------------------|
G#|-------5-8-5-------------5---------5-8-5-------------------|
C#|-7-0-7-------7-0-0-5-7-8---7-8-0-8-------0-5-0-5-7-8-7-5-7-|


Pre-verse

D#|-----------------------------------------------------------|
A#|-----------------------------------------------------------|
F#|-----------------------------------------------------------|
C#|--7-0-7---0---0--------------------------------------------|
G#|--7-0-7---0---0--------------------------------------------|
C#|--7-0-7---0---0--------------------------------------------|
             *   *


Verse

D#|-----------------------------------------------------------|
A#|-----------------------------------------------------------|
F#|-----------------------------------------------------------|
C#|-7-0-7---3-0-3---55555555555-------------------------------|
G#|-7-0-7---3-0-3---55555555555-------------------------------|
C#|-7-0-7---3-0-3---55555555555-------------------------------|

D#|-----------------------------------------------------------|
A#|-----------------------------------------------------------|
F#|-----------------------------------------------------------|
C#|-7-0-7---3-0-3---55555555555---10-10-10-10-10-10-10-10-10--|
G#|-7-0-7---3-0-3---55555555555---10-10-10-10-10-10-10-10-10--|
C#|-7-0-7---3-0-3---55555555555---10-10-10-10-10-10-10-10-10--|


Chorus

D#|-----------------------------------------------------------|
A#|-----------------------------------------------------------|
F#|-----------------------------------------------------------|
C#|-0-0-0-0-0-0-0-0-0-0-0-0--8-8-8-8-8-8--10-10-10-10-10-10---|
G#|-0-0-0-0-0-0-0-0-0-0-0-0--8-8-8-8-8-8--10-10-10-10-10-10---|
C#|-0-0-0-0-0-0-0-0-0-0-0-0--8-8-8-8-8-8--10-10-10-10-10-10---|

D#|-----------------------------------------------------------|
A#|-----------------------------------------------------------|
F#|-----------------------------------------------------------|
C#|-0-0-0-0-0-0--10-10-10-10-10-10--8-8-8-8-8-8-8-8-8-8-8-8---|
G#|-0-0-0-0-0-0--10-10-10-10-10-10--8-8-8-8-8-8-8-8-8-8-8-8---|
C#|-0-0-0-0-0-0--10-10-10-10-10-10--8-8-8-8-8-8-8-8-8-8-8-8---|

D#|------------------------------------------------------------|
A#|------------------------------------------------------------|
F#|------------------------------------------------------------|
C#|-0-0-0--0-0-0--0-0-0--0-0----8-8-8-8-8-8--10-10-10-10-10-10-|
G#|-0-0-0--0-0-0--0-0-0--0-0----8-8-8-8-8-8--10-10-10-10-10-10-|
C#|-0-0-0--0-0-0--0-0-0--0-0----8-8-8-8-8-8--10-10-10-10-10-10-|
    * *    * *    * *    * *

D#|-----------------------------------------------------------|
A#|-----------------------------------------------------------|
F#|-----------------------------------------------------------|
C#|-0-0-0-0-0-0--10-10-10-10-10-10--8-8-8-8-8-8-8-8-8-8-8-8---|
G#|-0-0-0-0-0-0--10-10-10-10-10-10--8-8-8-8-8-8-8-8-8-8-8-8---|
C#|-0-0-0-0-0-0--10-10-10-10-10-10--8-8-8-8-8-8-8-8-8-8-8-8---|

D#|-----------------------------------------------------------|
A#|-----------------------------------------------------------|
F#|-----------------------------------------------------------|
C#|-10-10-10-10-10-10-10-10-10-10-10-10-10--------------------|
G#|-10-10-10-10-10-10-10-10-10-10-10-10-10--------------------|
C#|-10-10-10-10-10-10-10-10-10-10-10-10-10--------------------|

D#|-----------------------------------------------------------|
A#|-----------------------------------------------------------|
F#|-----------------------------------------------------------|
C#|-8-8-8-8-8-8-8-8-8-8--10-10-10-10-10-10-10-10-10-10--------|
G#|-8-8-8-8-8-8-8-8-8-8--10-10-10-10-10-10-10-10-10-10--------|
C#|-8-8-8-8-8-8-8-8-8-8--10-10-10-10-10-10-10-10-10-10--------|

Solo part

D#|------------------------------------------------------------|
A#|------------------------------------------------------------|
F#|-17~-14~-12~---17~-14~-12~-10~-12~-14~-12~-10~--12~-14~-10~-|
C#|------------------------------------------------------------|
G#|-15~-12~-10~---15~-12~-10~--8~-10~-12~-10~--8~--10~-12~--8~-|
C#|------------------------------------------------------------|

D#|------------------------------------------------------------|
A#|------------------------------------------------------------|
F#|-10~-9~-10~----5~-7~-9~-------------------------------------|
C#|------------------------------------------------------------|
G#|--8~-7~--8~----3~-5~-7~-------------------------------------|
C#|------------------------------------------------------------|


Bridge

D#|-----------------------------------------------------------|
A#|-----------------------------------------------------------|
F#|-----------------------------------------------------------|
C#|-----------------------------------------------------------| x 10
G#|-5---------------------------------------------------------|
C#|---0-0-3~-0-3b-0-0-0-000-000-------------------------------|
      * *    *    * * * *** ***

D#|-----------------------------------------------------------|
A#|-----------------------------------------------------------|
F#|-----------------------------------------------------------|
C#|-000--000--0-0---000-000-----------------------------------| x 2
G#|-000--000--0-0---000-000-----------------------------------|
C#|-000--000--0-0---000-000-----------------------------------|
    ***  ***  * *   *** ***

D#|-----------------------------------------------------------|
A#|-----------------------------------------------------------|
F#|-----------------------------------------------------------|
C#|-8-8-8-8-8-8-8-8-8-8-8-8-8-8-8-8-8-8-8-8-8-8-8-8-----------|
G#|-8-8-8-8-8-8-8-8-8-8-8-8-8-8-8-8-8-8-8-8-8-8-8-8-----------|
C#|-8-8-8-8-8-8-8-8-8-8-8-8-8-8-8-8-8-8-8-8-8-8-8-8-----------|

D#|-----------------------------------------------------------|
A#|-----------------------------------------------------------|
F#|-----------------------------------------------------------|
C#|-10-10-10-10-10-10-10-10-10-10-10-10-10-10-10-10-10-10-10--|
G#|-10-10-10-10-10-10-10-10-10-10-10-10-10-10-10-10-10-10-10--|
C#|-10-10-10-10-10-10-10-10-10-10-10-10-10-10-10-10-10-10-10--|

D#|-----------------------------------------------------x-x-x-|
A#|-----------------------------------------------------x-x-x-|
F#|-----------------------------------------------------x-x-x-|
C#|-8~--8~-----8~---------------------------------------x-x-x-|
G#|-8~--8~-----8~---------------------------------------x-x-x-|
C#|-8~--8~-----8~---------------------------------------x-x-x-|


Chorus

D#|-----------------------------------------------------------|
A#|-----------------------------------------------------------|
F#|-----------------------------------------------------------|
C#|-0-0-0-0-0-0-0-0-0-0-0-0--8-8-8-8-8-8--10-10-10-10-10-10---|
G#|-0-0-0-0-0-0-0-0-0-0-0-0--8-8-8-8-8-8--10-10-10-10-10-10---|
C#|-0-0-0-0-0-0-0-0-0-0-0-0--8-8-8-8-8-8--10-10-10-10-10-10---|

D#|-----------------------------------------------------------|
A#|-----------------------------------------------------------|
F#|-----------------------------------------------------------|
C#|-0-0-0-0-0-0--10-10-10-10-10-10--8-8-8-8-8-8-8-8-8-8-8-8---|
G#|-0-0-0-0-0-0--10-10-10-10-10-10--8-8-8-8-8-8-8-8-8-8-8-8---|
C#|-0-0-0-0-0-0--10-10-10-10-10-10--8-8-8-8-8-8-8-8-8-8-8-8---|

D#|------------------------------------------------------------|
A#|------------------------------------------------------------|
F#|------------------------------------------------------------|
C#|-0-0-0--0-0-0--0-0-0--0-0----8-8-8-8-8-8--10-10-10-10-10-10-|
G#|-0-0-0--0-0-0--0-0-0--0-0----8-8-8-8-8-8--10-10-10-10-10-10-|
C#|-0-0-0--0-0-0--0-0-0--0-0----8-8-8-8-8-8--10-10-10-10-10-10-|
    * *    * *    * *    * *

D#|-----------------------------------------------------------|
A#|-----------------------------------------------------------|
F#|-----------------------------------------------------------|
C#|-0-0-0-0-0-0--10-10-10-10-10-10--8-8-8-8-8-8-8-8-8-8-8-8---|
G#|-0-0-0-0-0-0--10-10-10-10-10-10--8-8-8-8-8-8-8-8-8-8-8-8---|
C#|-0-0-0-0-0-0--10-10-10-10-10-10--8-8-8-8-8-8-8-8-8-8-8-8---|

D#|-----------------------------------------------------------|
A#|-----------------------------------------------------------|
F#|-----------------------------------------------------------|
C#|-10-10-10-10-10-10-10-10-10-10-10-10-10--------------------|
G#|-10-10-10-10-10-10-10-10-10-10-10-10-10--------------------|
C#|-10-10-10-10-10-10-10-10-10-10-10-10-10--------------------|

D#|-----------------------------------------------------------|
A#|-----------------------------------------------------------|
F#|-----------------------------------------------------------|
C#|-8-8-8-8-8-8-8-8-8-8--10-10-10-10-10-10-10-10-10-10--------|
G#|-8-8-8-8-8-8-8-8-8-8--10-10-10-10-10-10-10-10-10-10--------|
C#|-8-8-8-8-8-8-8-8-8-8--10-10-10-10-10-10-10-10-10-10--------|


Outro

D#|-----------------------------------------------------------|
A#|-----------------------------------------------------------|
F#|-----------------------------------------------------------|
C#|-8~--8~-----8~---------------------------------------------|
G#|-8~--8~-----8~---------------------------------------------|
C#|-8~--8~-----8~---------------------------------------------|


There you are guys, hope you like it

seems right, let's be fair





Comments


Popular Lorene Drive tabs & chords
A Kiss Wont Make This Better Intro Tabs
God Knows I Love You Kid Tabs
Kill Your Lover Tabs
Let It Go 1 Tabs
Let It Go Intro Tabs
Showing Bones Tabs


Song lyrics



↑ Back to top | Tablatures and chords are parodies/interpretations of the original songs. You may use it for private study, scholarship, research or language learning purposes only
© 2014 AZChords.com Contact us | Privacy policy | DMCA | Add/correct tabs | Request tabs | Top 50 tabs