>
 >
Kill Your Lover

Kill Your Lover Guitar Tabs

Lorene Drive - Kill Your Lover chords, tabs, tablatures, lyrics

Guitar lessons | Add/correct | Request | Top 50 tabs Artists:  A B C D E F G H I J K L M N O P Q R S T U V W X Y Z 0-9

Kill Your Lover Guitar Tabs – Lorene Drive

CD, Sheet music, Poster

Do you like Kill Your Lover? Share with your friends now
Tabs
Tuning: Drop D lowered 1/2 step

h- hammer on
p- pull off
b- bend
r-release
~-let ring
/-slide
(n)-harmonic
x- mute
*-palm mute

I saw Lorene Drive perform in Toledo OH and they were amazing. Ive been looking for more
correct. Enjoy!

Intro
D#|------------------------------------------------------------------------|
A#|--------------------------------------------8---------------------------|
F#|-------------7-7777-9-9999-10-10101010-99----10p9-10-10101010--9-999----|
C#|---0---------x-xxxx-x-xxxx-x--x-x-x-x--xx-x--------x--x-x-x-x--x-xxx----|
G#|---0---------5-5555-7-7777-8--8-8-8-8--77-x--------8--8-8-8-8--7-777----|
C#|---0--------------------------------------------------------------------|

D#|---------------------------|    |---------------------------------------|
A#|---------------------------|    |---------------------------------------|
F#|---------------------------| X2 |---------------------------------------|
C#|-0-----0-0-3h5p3-----------|    |--0----000-0-3h5p3---------------------|
G#|-0-----0-0-3h5p3-----------|    |--0----000-0-3h5p3---------------------|
C#|-0-----0-0-3h5p3-----------|    |--0----000-0-3h5p3---------------------|

D#|--------------------------------------------------------|
A#|--------------------------------------------------------|
F#|--------------------------------------------------------|
C#|-0--0-0-0-0-0-0-0----0--0-0-0-0-0-3h5p3-----------------|
G#|-0--0-0-0-0-0-0-0----0--0-0-0-0-0-3h5p3-----------------|
C#|-0--0-0-0-0-0-0-0----0--0-0-0-0-0-3h5p3-----------------|

D#|--------------------------------------------------------|
A#|--------------------------------------------------------|
F#|--------------------------------------------------------|
C#|-0--0-0-0-0-0-0-0----0--0-0-0-0-0-3h5p3-----------------|
G#|-0--0-0-0-0-0-0-0----0--0-0-0-0-0-3h5p3-----------------|
C#|-0--0-0-0-0-0-0-0----0--0-0-0-0-0-3h5p3-----------------|

D#|---------------------------13p12p10-------------------------------------|
A#|------------------------------------------------------------------------|
F#|------10p9------10p9----------------------10p9------10p9----------------|
C#|-0-00------0-00------xxxxx-----------0-00------0-00---------------------|
G#|-0-00------0-00------xxxxx-----------0-00------0-00---------------------|
C#|-0-00------0-00------xxxxx-----------0-00------0-00---------------------|

     Clean
D#|--------------------------------------| |----------------------|
A#|------------------------------8-------| |----------------------|
F#|-7-7777-7-7777-10-10101010-99--10p9---| |-10-10101010-9-9999---| X2
C#|-x-xxxx-x-xxxx-x--x-x-x-x--xx---------| |-x--x-x-x-x--x-xxxx---|
G#|-5-5555-7-7777-8--8-8-8-8--77---------| |-8--8-8-8-8--7-7777---|
C#|--------------------------------------| |----------------------|

D#|-------------------------------------------------------------|
A#|-------------------------------------------------------------|
F#|-10101010-x-x-x-x--x-x-x-x-9-9-9-9---7--9-9/10-9-7--7777-----|
C#|-x-x-x-x--10101010-9-9-9-9-x-x-x-x---x--x-x-x--x-x--xxxx-----|
G#|-8-8-8-8--8-8-8-8--7-7-7-7-7-7-7-7---5--7-7/8--7-5--5555-----|
C#|-------------------------------------------------------------|

D#|---------------------------------------------------------------------|
A#|----------------------------8---------------------------------8------|
F#|-9/10-9h10-10p9---9h10-9h10--h10p9-9/10-9h10-10p9---9h10-9h10--h10p9-|
C#|-x------------10-------------------x-------------10------------------|
G#|-7---------------------------------7---------------------------------|
C#|---------------------------------------------------------------------|

D#|---------------------------------------|
A#|---------------------------------------|
F#|---------------------------------------|  X6
C#|-0-5h7-x-7h8-x-8h10-x-10h12-10h12------|
G#|-0-5h7-x-7h8-x-8h10-x-10h12-10h12------|
C#|-0-5h7-x-7h8-x-8h10-x-10h12-10h12------|

D#|---------------------------13p12p10-------------------------------------|
A#|------------------------------------------------------------------------|
F#|------10p9------10p9----------------------10p9------10p9----------------|
C#|-0-00------0-00------xxxxx-----------0-00------0-00---------------------|
G#|-0-00------0-00------xxxxx-----------0-00------0-00---------------------|
C#|-0-00------0-00------xxxxx-----------0-00------0-00---------------------|

D#|------------------------------------------------------------------------|
A#|---------------------------------------------------------------8--------|
F#|-5--5-5-5-5-5-5-55-9--9-9-9-9-9-99-9h109h1010b12b10p9--9h109h10-10p9h10-|
C#|-x--x-x-x-x-x-x-xx-x--x-x-x-x-x-xx-------------------10-----------------|
G#|-3--3-3-3-3-3-3-33-7--7-7-7-7-7-77--------------------------------------|
C#|------------------------------------------------------------------------|

D#|-------------------------------12b13b12-10---|
A#|---------------------------------------------|
F#|-9h10-9h10-10b12p10p9---9h10-9---------------|
C#|---------------------10----------------------|
G#|---------------------------------------------|
C#|---------------------------------------------|

D#|------------------------------------------------------------------------|
A#|---------------------------------------------------------------8--------|
F#|-5--5-5-5-5-5-5-55-9--9-9-9-9-9-99-9h109h1010b12b10p9--9h109h10-10p9h10-|
C#|-x--x-x-x-x-x-x-xx-x--x-x-x-x-x-xx-------------------10-----------------|
G#|-3--3-3-3-3-3-3-33-7--7-7-7-7-7-77--------------------------------------|
C#|------------------------------------------------------------------------|

D#|-------------------------------12b13b12-10-------------------------|
A#|-------------------------------------------------------------------|
F#|-9h10-9h10-10b12p10p9---9h10-9--------------7-7-77-x7-77-7777------|
C#|---------------------10---------------------x-x-xx-xx-xx-xxxx------|
G#|--------------------------------------------5-5-55-x5-55-5555------|
C#|-------------------------------------------------------------------|

D#|--------------------------------------------------------------|
A#|-------------------------------------------------------8------|
F#|-7-7-77-x7-77-7777-xxxx-7-7777-9-9999-10-10101010-99----10p9--|
C#|-x-x-xx-xx-xx-xxxx-xxxx-x-xxxx-x-xxxx-x--x-x-x-x--xx-x--------|
G#|-5-5-55-x5-55-5555-xxxx-5-5555-7-7777-8--8-8-8-8--77-x--------|
C#|--------------------------------------------------------------|

D#|---------------------------------------------|
A#|---------------------------------------------|
F#|-10-10101010--9-9999--10-10101010--9-9999----|
C#|--x--x-x-x-x--x-xxxx---x--x-x-x-x--x-xxxx----|
G#|--8--8-8-8-8--7-7777---8--8-8-8-8--7-7777----|
C#|---------------------------------------------|

D#|-----------------------------------------------------------------------|
A#|-----------------------------------------------------------1313--------|
F#|-9h10-9h10-9h10-9h10-9h10-9h10-9h10p9---9h10-9h10-9h10-9h10----9-9h10--|
C#|-------------------------------------10--------------------------------|
G#|-----------------------------------------------------------------------|
C#|-----------------------------------------------------------------------|

D#|-12b13~----13p12p10-12-------------13p12--15p12--13p12--15p12--13p12--12|
A#|------------------------11h13-----------13-----13-----13-----13-----13--|
F#|------------------------------------------------------------------------|
C#|------------------------------------------------------------------------|
G#|------------------------------------------------------------------------|
C#|------------------------------------------------------------------------|

D#|-13p12--15p12--13p12--15p12---------------------------------------------|
A#|------13-----13-----13-----13-13b15---15p13---13p11--11p9---9-----------|
F#|-------------------------------------------15------13----11--11-9-9h11~~|
C#|------------------------------------------------------------------------|
G#|------------------------------------------------------------------------|
C#|------------------------------------------------------------------------|

D#|------------------------------------------------------------------------|
A#|------------------------------8-----------------------------------------|
F#|-7-7777-7-7777-10-10101010-99--10p9-10-10101010-9-9999-3h5-10-10101010--|
C#|-x-xxxx-x-xxxx-x--x-x-x-x--xx--------x--x-x-x-x-x-xxxx-3h5--x--x-x-x-x--|
G#|-5-5555-7-7777-8--8-8-8-8--77--------8--8-8-8-8-7-7777-3h5--8--8-8-8-8--|
C#|------------------------------------------------------------------------|

D#|---------------------------------------------------------------------|
A#|---------------------------------------------------------------------|
F#|-9-9999--10101010-x-x-x-x--x-x-x-x-9-9-9-9---7--9-9/10-9-7--7777-----|
C#|-x-xxxx--x-x-x-x--10101010-9-9-9-9-x-x-x-x---x--x-x-x--x-x--xxxx-----|
G#|-7-7777--8-8-8-8--8-8-8-8--7-7-7-7-7-7-7-7---5--7-7/8--7-5--5555-----|
C#|---------------------------------------------------------------------|

D#|---------------------------------------------------------------------|
A#|----------------------------8---------------------------------8------|
F#|-9/10-9h10-10p9---9h10-9h10--h10p9-9/10-9h10-10p9---9h10-9h10--h10p9-|
C#|-x------------10-------------------x-------------10------------------|
G#|-7---------------------------------7---------------------------------|
C#|---------------------------------------------------------------------|

D#|---------------------------------------------------------------------|
A#|----------------------------8---------------------------------8------|
F#|-9/10-9h10-10p9---9h10-9h10--h10p9-9/10-9h10-10p9---9h10-9h10--h10p9-|
C#|-x------------10-------------------x-------------10------------------|
G#|-7---------------------------------7---------------------------------|
C#|---------------------------------------------------------------------|

D#|-------------------------------|
A#|-------------------------------|
F#|--------------(7)(7)(7)--------|
C#|-0-00-0-000-0----------0~------|
F#|-0-00-0-000-0----------0~------|
C#|-0-00-0-000-0----------0~------|

the tab and rock on!





Comments


Popular Lorene Drive tabs & chords
A Kiss Wont Make This Better Intro Tabs
God Knows I Love You Kid Tabs
Let It Go Tabs
Let It Go 1 Tabs
Let It Go Intro Tabs
Showing Bones Tabs


Song lyrics



↑ Back to top | Tablatures and chords are parodies/interpretations of the original songs. You may use it for private study, scholarship, research or language learning purposes only
© 2014 AZChords.com Contact us | Privacy policy | DMCA | Add/correct tabs | Request tabs | Top 50 tabs