>
 >
God Knows I Love You Kid

God Knows I Love You Kid Guitar Tabs

Lorene Drive - God Knows I Love You Kid chords, tabs, tablatures, lyrics

Guitar lessons | Add/correct | Request | Top 50 tabs Artists:  A B C D E F G H I J K L M N O P Q R S T U V W X Y Z 0-9

God Knows I Love You Kid Guitar Tabs – Lorene Drive

CD, Sheet music, Poster

Do you like God Knows I Love You Kid? Share with your friends now
Tabs
-------------------------------------------------------------------------------
-------------------------------------------------------------------------------

Tuning: d flat

intro GUITAR 1

e|------------------------------xxxx-----------------------------------------|
B|------------------------------xxxx-----------------------------------------|
G|------------------------------xxxx-----------------------------------------|X3
D|------------------------------xxxx-----------------------------------------|
A|------------------------------xxxx-----------------------------------------|
E|----2b3b2-0-2-2b3b2-0-2-2-----xxxx-----------------------------------------|


e|---------------------------------------------------------------------------|
B|---------------------------------------------------------------------------|
G|---------------------------------------------------------------------------|X1
D|---------------------------------------------------------------------------|
A|---------------------------------------------------------------------------|
E|----2b3b2-0-2-2b3b2-0-2----------------------------------------------------|

intro/verse GUITAR 2

e|---------------------------------------------------------------------------|
B|----5~---------------------------------------------------------------------|
G|---------------------------------------------------------------------------|
D|---------------------------------------------------------------------------|
A|---------------------------------------------------------------------------|
E|---------------------------------------------------------------------------|

e|----000000000000000000000000-----------------------------------------------|
B|----555555558888444444448888-----------------------------------------------|
G|---------------------------------------------------------------------------|
D|---------------------------------------------------------------------------|
A|---------------------------------------------------------------------------|
E|---------------------------------------------------------------------------|

verse GUITAR 1

e|------------------------------xxxx--X3---------------------------------0---|
B|------------------------------xxxx-------------------------------------5---|
G|------------------------------xxxx-----------------------------------------|
D|------------------------------xxxx-------22222222X--555555555555556666-----|
A|------------------------------xxxx-------22222222X--555555555555556666-----|
E|----2b3b2-0-2-2b3b2-0-2-2-----xxxx-------22222222X--555555555555556666-----|

e|---------------------------------------------------------------------------|
B|---------------------------------------------------------------------------|
G|---------------------------------------------------------------------------|
D|----------------------2~---------------------------------------------------|
A|----------------------2~---------------------------------------------------|
E|----2b3b2-0-2-2b3b2-0-2~---------------------------------------------------|

verse GUITAR 2



Clean Part

e|-------0---------0---------------------------------------------------------|
B|---------------------------------------------------------------------------|
G|---------5---------5-------------------------------------------------------|
D|-------------5~------------------------------------------------------------|
A|---7~--------3~--------2~----6~--------------------------------------------|
E|---7~------------------2~----7~--------------------------------------------|

e|-------0---------0--------0------------------------------------------------|
B|--------------------------5------------------------------------------------|
G|---------5---------5-------------------------------------------------------|
D|-------------5~------------------------------------------------------------|
A|---7~--------3~--------2~----6666666666666666------------------------------|
E|---7~------------------2~----7777777777777777------------------------------|
                                ........ 
Chorus
                               
e|---------------------------------0------------------------------------------|
B|---------------------------------5------------------------------------------|
G|------------------------55-54-4---------------------------------------------|
D|------------------------55-55-5---------------------------------------------|
A|---77-77-77-77-7-7------33-33-3---------------------------------------------|
E|---77-77-77-77-7-7----------------------------------------------------------|

e|----------------------------------------------------------------------------|
B|----------------------------------------------------------------------------|
G|----------------(tens)------------------------------------------------------|
D|----------------------------------------------------------------------------|
A|---77777777777710101010333333333/7777777------------------------------------|
E|---77777777777710101010333333333/6666666------------------------------------|

e|---------------------------------0------------------------------------------|
B|---------------------------------5------------------------------------------|
G|------------------------55-54-4---------------------------------------------|
D|------------------------55-55-5---------------------------------------------|
A|---77-77-77-77-7-7------33-33-3---------------------------------------------|
E|---77-77-77-77-7-7----------------------------------------------------------|

e|----------------------------------------------------------------------------|
B|----------------------------------------------------------------------------|
G|----------------(tens)------------------------------------------------------|
D|----------------------------------------------------------------------------|
A|---7777777777771010101033333XX3333XX----------------------7~----------------|
E|---7777777777771010101033333XX3333XX----2b3b2-0-2-2b3b2-0-6~----------------|

post chorus

e|----000000000000000000000000-----------------------------------------------|
B|----555555558888444444448888-----------------------------------------------|
G|---------------------------------------------------------------------------|
D|---------------------------------------------------------------------------|
A|---------------------------------------------------------------------------|
E|---------------------------------------------------------------------------|

verse 2


e|-----------------------------------------------------------------------|
B|-----------------------------------------------------------------------|
G|-----------------------------------------------------------------------|
D|-----------------------------------------------------------------------|
A|-----------------------------------------------------------------------|
E|----2b3b2-0-2-2b3b2-0-2-2----2b3b2-0-2-2b3b2-0-2-----------------------|


e|---------------------------------------------------XX--0---------------------|
B|---------------------------------------------------XX--5---------------------|
G|---------------------------------------------------XX------------------------|
D|---------------------------------------------------XX------------------------|
A|---------------------------------------------------XX------------------------|
E|----2b3b2-0-2-2b3b2-0-2-2----2b3b2-0-2-2b3b2-0-2-2-XX------------------------|


e|--------------------------0------------------------------------------------|
B|--------------------------5------------------------------------------------|
G|---------------------------------------------------------------------------|
D|---------------------------------------------------------------------------|
A|-----555555555555557777----------------------------------------------------|
E|-----555555555555556666----------------------------------------------------|

repeat chorus

break down


e|---------------------------------------------------------------------------|
B|---------------------------------------------------------------------------|
G|---------------------------------------------------------------------------|
D|---------------------------------------------------------------------------|
A|---------------------------------------------------------------------------|
E|----2b3b2-0-2-2b3b2-0-2-2---bunch of times-----|---------------------------|

e|---------------------------------------------------------------------------|
B|---------------------------------------------------------------------------|
G|---------------------------------------------------------------------------|
D|------------------10-----------------7-------------------------------------|
A|----7-7-7-7-7-7-7-10---7-7-7-7-7-7-7-7-------------------------------------|
E|----7-7-7-7-7-7-7-10---6-6-6-6-6-6-6-7-------------------------------------|
      q q q q q q e h    q q q q q q e h
e|---------------------------------------------------------------------------|
B|---------------------------------------------------------------------------|
G|---------------------------------------------------------------------------|
D|---------------------------------------------------------------------------|
A|----3333-3-3-3333-3-33--2-2-2-2--2222222222227------------------------------------|
E|----3333-3-3-3333-3-33--2-2-2-2--2222222222226------------------------------------|
      ....     ....   ..           ............
      eeee q q eeee q ee  q q q q  eeeeeeeeeeeeq 


e|---------------------------------------------------------------------------|
B|---------------------------------------------------------------------------|
G|---------------------------------------------------------------------------|
D|------------------10-----------------7-------------------------------------|
A|----7-7-7-7-7-7-7-10---7-7-7-7-7-7-7-7-------------------------------------|
E|----7-7-7-7-7-7-7-10---6-6-6-6-6-6-6-7-------------------------------------|
      q q q q q q e h    q q q q q q e h
e|---------------------------------------------------------------------------|
B|---------------------------------------------------------------------------|
G|---------------------------------------------------------------------------|
D|---------------------------------------------------------------------------|
A|----3333-3-3-3333-3-33--2~--7~---------------------------------------------|
E|----3333-3-3-3333-3-33--2~--6~---------------------------------------------|
      ....     ....   ..
      eeee q q eeee q ee  

e|-------0---------0---------------------------------------------------------|
B|---------------------------------------------------------------------------|
G|---------5---------5-------------------------------------------------------|
D|-------------5~------------------------------------------------------------|
A|---7~--------3~--------2-2222222-7~----------------------------------------|
E|---7~------------------2-2222222-6~----------------------------------------|
                           .......   
repeat chorus

solo


e|---------------------------------------------------------------------------|
B|---12p10-12-12--------------------12p10-12-12------------------------------|
G|---------------12-----------------------------12---------------------------|
D|------------------12p10-10p9-9p7-----------------12p10-10p9-7--------------|
A|---------------------------------------------------------------------------|
E|---------------------------------------------------------------------------|

e|----------------------------------1919191914141414-------------------------|
B|----10---12----13----15----17-----1818181813131313-------------------------|
G|---------------------------------------------------------------------------|
D|--7----9----10----12----14-------------------------------------------------|
A|---------------------------------------------------------------------------|
E|---------------------------------------------------------------------------|

e|-----------------------------------19p17-----------------------------------|
B|---12p10-12-12---------------------------20--------------------------------|
G|---------------12---------------------------19p17-17p16-16p14--------------|
D|------------------12p10-10p9-9p7-------------------------------------------|
A|---------------------------------------------------------------------------|
E|---------------------------------------------------------------------------|

e|---------------------------------------------------------------------|
B|---12p10-12-12----------------------------------------------------------|
G|---------------12-----------------------------------------|
D|------------------12p10-10p9-9p7-------------------------------------------|
A|---------------------------------------------------------------------------|
E|---------------------------------------------------------------------------|

outro


e|------------------------------xxxx-----------------------------------------|
B|------------------------------xxxx-----------------------------------------|
G|------------------------------xxxx-----------------------------------------|
D|------------------------------xxxx-----------------------------------------|
A|------------------------------xxxx-----------------------------------------|
E|----2b3b2-0-2-2b3b2-0-2-2-----xxxx-----------------------------------------|


| .  palm mute
| b  bend
| /  slide up
| \  slide down
| h  hammer-on
| p  pull-off
| ~  vibrato
| +  harmonic
| x  Mute note
===============================================================================





Comments


Popular Lorene Drive tabs & chords
A Kiss Wont Make This Better Intro Tabs
Kill Your Lover Tabs
Let It Go Tabs
Let It Go 1 Tabs
Let It Go Intro Tabs
Showing Bones Tabs


Song lyrics



↑ Back to top | Tablatures and chords are parodies/interpretations of the original songs. You may use it for private study, scholarship, research or language learning purposes only
© 2014 AZChords.com Contact us | Privacy policy | DMCA | Add/correct tabs | Request tabs | Top 50 tabs