>
 >
Highwayman

Highwayman Guitar Tabs

Loreena Mckennitt - Highwayman chords, tabs, tablatures, lyrics

Guitar lessons | Add/correct | Request | Top 50 tabs Artists:  A B C D E F G H I J K L M N O P Q R S T U V W X Y Z 0-9

Highwayman Guitar Tabs – Loreena Mckennitt

CD, Sheet music, Poster

Do you like Highwayman? Share with your friends now
ChordsChords v2TabsUkulele
The Highwayman (Loreena Mckennitt)


Notes: This is a beautiful song, and obviously involves several instruments; here is
"my" version of the guitar part. I use the Travis picking technique, since I think it
suits the rythm of the song and sounds fairly close to the actual song itself. Basically
I wanted to learn this song, and couldn't find a version I liked online, so after playing
Dust in the Wind (which uses the same picking technique), decided that the picking
technique for that song would suit this one, so I figured out the chords (very basic
ones), and applied the technique.  It remains the same throughout the song, though you
can vary the bass line, the pattern of the picking, and the hammer-ons, etc. to
improve/spice up the song.  This is my first tabbing project,and I'm unaware of whether
out!), so it took a while writing it all out and copying and pasting!  I'd appreciate
any feedback on my first tab.  Also, I'm not quite up to scratch on theory, so the
measures/bars are probably not accurate.  Sounds like a 4/4 beat to me, but as I said,
I'm kind of rusty when it comes to theory...




Intro (Play 2x)


     Am					   
e-|------------------------------------|
b-|--1--------1-------1--------1-------|
g-|-------2-------2--------2-------2---|
d-|-----2-------2--------2-------2-----|
a-|--0------0---------0------0---------|
E-|------------------------------------|



     C		  G	       Am
e-|----------------------------------------------|
b-|--1------------0------------0h1-------1-------|
g-|-------0------------0-------0h2---2-------2---|
d-|-----2------------0---------0h2-2-------2-----|
a-|--3-------------------------0-------0---------|
E-|---------------3------------------------------|



     Am
e-|--------------------|
b-|--0h1-------1-------|
g-|--------2-------2---|
d-|------2-------2-----|	 
a-|--0-------0---------|
E-|--------------------|





Verse/Chorus


     Am					   
e-|------------------------------------|
b-|--1--------1-------1--------1-------|
g-|-------2-------2--------2-------2---|
d-|-----2-------2--------2-------2-----|
a-|--0------0---------0------0---------|
E-|------------------------------------|
     The wind was a torrent of darkness



     C		  G	       Am
e-|----------------------------------------------|
b-|--1------------0------------0h1-------1-------|
g-|-------0------------0-------0h2---2-------2---|
d-|-----2------------0---------0h2-2-------2-----|
a-|--3-------------------------0-------0---------|
E-|---------------3------------------------------|
    Among the     gusty        trees


 

     Am
e-|--------------------|
b-|--0h1-------1-------|
g-|--------2-------2---|
d-|------2-------2-----|	 
a-|--0-------0---------|
E-|--------------------|
                    The



          Am					   
e-|------------------------------------|
b-|--1--------1-------1--------1-------|
g-|-------2-------2--------2-------2---|
d-|-----2-------2--------2-------2-----|
a-|--0------0---------0------0---------|
E-|------------------------------------|
     moon was a ghostly galleon tossed u-



     C		  G	       Am
e-|----------------------------------------------|
b-|--1------------0------------0h1-------1-------|
g-|-------0------------0-------0h2---2-------2---|
d-|-----2------------0---------0h2-2-------2-----|
a-|--3-------------------------0-------0---------|
E-|---------------3------------------------------|
    -pon the      cloudy       seas 


 

     Am
e-|--------------------|
b-|--0h1-------1-------|
g-|--------2-------2---|
d-|------2-------2-----|	 
a-|--0-------0---------|
E-|--------------------|
                    The



     Dm               G                               
e-|--1--------1----------------3-------|
b-|-------3-------3---0----------------|
g-|-----2-------2----------0-------0---|
d-|--0------0------------0-------0-----|
a-|--------------------------2---------|
E-|-------------------3----------------|
     road was.........moonlight



     Am               G 
e-|----------------------------3-------|
b-|--1--------1-------0----------------|
g-|-------2-------2--------0-------0---|
d-|-----2-------2--------0-------0-----|
a-|--0------0----------------2---------|
E-|-------------------3----------------|
     over the purple  moors      and the 



 Dm                   G                               
e-|--1--------1----------------3-------|
b-|-------3-------3---0----------------|
g-|-----2-------2----------0-------0---|
d-|--0------0------------0-------0-----|
a-|--------------------------2---------|
E-|-------------------3----------------|
     Highwayman came  riding 



     Am               G 
e-|----------------------------3-------|
b-|--1--------1-------0----------------|
g-|-------2-------2--------0-------0---|
d-|-----2-------2--------0-------0-----|
a-|--0------0----------------2---------|
E-|-------------------3----------------|
     riding           riding       the
     

  
     Am                G                   
e-|-----------------------------3-------|
b-|--1---------1-------0----------------|
g-|--------2-------2-------0--------0---|	
d-|------2-------2-------0--------0-----|
a-|--0-------0----------------2---------|
E-|--------------------3----------------|
     Highwayman came   riding     up



     Am       G        Am
e-|--------------------------------------|
b-|--1--------0--------0h1---------1-----|
g-|--------2-------0-----------2-------2-|
d-|------2-------0-----------2-------2---|
a-|--0-------------------0-------0-------|
E-|-----------3--------------------------|
     to the   old inn  door

     

     Am
e-|--------------------|
b-|--1---------1-------|
g-|--------2-------2---|	
d-|------2-------2-----|
a-|--0-------0---------|
E-|--------------------|





Comments


Popular Loreena Mckennitt tabs & chords
All Souls Night 1 Chords
Highwayman Chords
Lady Of Shalott Chords
Tango To Evora Chords
Serenissima 1 Tabs
All Souls Night Ukulele
Dantes Prayer Ukulele
Highwayman Ukulele
Penelopes Song Ukulele
The Dark Night Of The Soul Ukulele


Song lyrics



↑ Back to top | Tablatures and chords are parodies/interpretations of the original songs. You may use it for private study, scholarship, research or language learning purposes only
© 2014 AZChords.com Contact us | Privacy policy | DMCA | Add/correct tabs | Request tabs | Top 50 tabs