>
 >
Fire Island Ak

Fire Island Ak Guitar Tabs

Long Winters - Fire Island Ak chords, tabs, tablatures, lyrics

Guitar lessons | Add/correct | Request | Top 50 tabs Artists:  A B C D E F G H I J K L M N O P Q R S T U V W X Y Z 0-9

Fire Island Ak Guitar Tabs – Long Winters

CD, Sheet music, Poster

Do you like Fire Island Ak? Share with your friends now
Tabs
----------------------------------------------------------------------------
                    Fire Island, AK - The Long Winters
----------------------------------------------------------------------------

Tuning: EADGBe

 Intro: (Guitar 1) x4

   D  D  D   D  U   D  D  D  U  D  U   D  D  D   D  U   D  D   D  U  D  U
e|-------------------------------------------------------------------------|
B|-------------------------------------------------------------------------|
G|-12-12-12--12-12--12-12-12-12-12-12--11-11-11--11-11--10-10--10-10-10-10-|
D|-x--x--x---x--x---x--x--x--x--x--x---x--x--x---x--x---x--x---x--x--x--x--|
A|-10-10-10--10-10--10-10-10-10-10-10--9--9--9---9--9---8--8---8--8--8--8--|
E|-------------------------------------------------------------------------|

Intro: Guitar 2 (coming in with the Bass after Guitar 1)

   D D D  D U D D D U D U D D D D  D U U U U
e|--------------------------------------------|
B|--------------------------------------------|
G|--------------------------------------------| x2 {On the second time
D|--------------------------------------------|     let the last 3 ring}
A|-5-5-5--5p3-5-5-5p3-5p3-5-5-5-5--5p3-3--3-3-|
E|--------------------------------------------|

Verse 1 x4 (Guitar 1)

   D  D  D   D  U   D  D  D  U  D  U   D  D  D   D  U   D  D   D  U  D  U
e|-------------------------------------------------------------------------|
B|-------------------------------------------------------------------------|
G|-12-12-12--12-12--12-12-12-12-12-12--11-11-11--11-11--10-10--10-10-10-10-|
D|-x--x--x---x--x---x--x--x--x--x--x---x--x--x---x--x---x--x---x--x--x--x--|
A|-10-10-10--10-10--10-10-10-10-10-10--9--9--9---9--9---8--8---8--8--8--8--|
E|-------------------------------------------------------------------------|
   Here's how I found out 
   A man called my house 
   He asked me what I knew 
   They found my letter 
(Ending the Verse and entering the Chorus --->) And I don't have to wonder  

Chorus x4 Guitar 2 (Guitar 1 does the verse part on the choruses)

   D D D D U D D D D D D D D D D D D
e|-------------------------------------|
B|-------------------------------------|
G|-------------------------------------|
D|-------------------------------------|
A|-----3-----------5-----5-------------|
E|-5-5---5p3-3-3-3---3-3---3-1-1-1-1---|
   No I don't have to wonder
   So I don't have to wonder
   Did it reach you?, Did it reach you?

Pre Verse: Guitar 2 (Guitar 1 does the same verse things during this part)

   D D D  D U D D D U D U D D D D  D U U U U
e|--------------------------------------------|
B|--------------------------------------------|
G|--------------------------------------------| x2 {On the second time
D|--------------------------------------------|     let the last 3 ring}
A|-5-5-5--5p3-5-5-5p3-5p3-5-5-5-5--5p3-3--3-3-|
E|--------------------------------------------|

Verse 2: Guitar 1 x4

   D  D  D   D  U   D  D  D  U  D  U   D  D  D   D  U   D  D   D  U  D  U
e|-------------------------------------------------------------------------|
B|-------------------------------------------------------------------------|
G|-12-12-12--12-12--12-12-12-12-12-12--11-11-11--11-11--10-10--10-10-10-10-|
D|-x--x--x---x--x---x--x--x--x--x--x---x--x--x---x--x---x--x---x--x--x--x--|
A|-10-10-10--10-10--10-10-10-10-10-10--9--9--9---9--9---8--8---8--8--8--8--|
E|-------------------------------------------------------------------------|
   Good morning Fire Island 
   I'm not sure who to ask 
   They said wait until tomorrow 
   They found my letter
(Ending the Verse and entering the Chorus --->) And I don't have to wonder
 
Chorus 2: x4 Guitar 2 (Guitar 1 does the verse part on the choruses)

   D D D D U D D D D D D D D D D D D
e|-------------------------------------|
B|-------------------------------------|
G|-------------------------------------|
D|-------------------------------------|
A|-----3-----------5-----5-------------|
E|-5-5---5p3-3-3-3---3-3---3-1-1-1-1---|
   No I don't have to wonder (woahh ahhhh hahh ahh ahh)
   So I don't have to wonder (woahh ahhhh hahh ahh ahh ahh ahhh)
   Did it reach you, Did it reach you (woahh ahhhh hahh ahh ahh ahh ahhh) x2

Solo: Guitar 2 (Guitar 1 does the same thing as the verses)

   D  D U D U   U D U   U D U   D  D U D U     D  D D  D  D
e|-----------------------------------------------------------|
B|-------------------------------------------------10--------|
G|-7b-5-------------------------7b-5-------------7----7------| x2
D|------7-x-7~--7-x-7~--7-x-7~-------7-x-7~\--7\9--------9/5-|
A|-----------------------------------------------------------|
E|-----------------------------------------------------------|

Verse 3: Guitar 1 x4

   D  D  D   D  U   D  D  D  U  D  U   D  D  D   D  U   D  D   D  U  D  U
e|-------------------------------------------------------------------------|
B|-------------------------------------------------------------------------|
G|-12-12-12--12-12--12-12-12-12-12-12--11-11-11--11-11--10-10--10-10-10-10-|
D|-x--x--x---x--x---x--x--x--x--x--x---x--x--x---x--x---x--x---x--x--x--x--|
A|-10-10-10--10-10--10-10-10-10-10-10--9--9--9---9--9---8--8---8--8--8--8--|
E|-------------------------------------------------------------------------|
   Cinders in the garden 
   from the cars parked on the lawn 
   they're tracking up the carpet 
   they found my letter 
(Ending the Verse and entering the Chorus --->) And I don't have to wonder  

During Verse 3 Guitar 2 does this after guitar 1 does his thing 2 times.

   D D D  D U D D D U D U D D D D  D U U U U
e|--------------------------------------------|
B|--------------------------------------------|
G|--------------------------------------------|
D|--------------------------------------------|
A|-5-5-5--5p3-5-5-5p3-5p3-5-5-5-5--5p3-3--3-3-|
E|--------------------------------------------|

Chorus 3: x4 Guitar 2 (Guitar 1 does the verse part on the choruses)

   D D D D U D D D D D D D D D D D D
e|-------------------------------------|
B|-------------------------------------|
G|-------------------------------------|
D|-------------------------------------|
A|-----3-----------5-----5-------------|
E|-5-5---5p3-3-3-3---3-3---3-1-1-1-1---|
   No I don't have to wonder (woahh ahhhh hahh ahh ahh)
   So I don't have to wonder (woahh ahhhh hahh ahh ahh ahh ahhh)
   Did it reach you, Did it reach you (woahh ahhhh hahh ahh ahh ahh ahhh) x2

Outro: Guitar 2 x4

   D D D D U D D D D D D D D D D D D
e|-------------------------------------|
B|-------------------------------------|
G|-------------------------------------|
D|-------------------------------------|
A|-----3-----------5-----5-------------|
E|-5-5---5p3-3-3-3---3-3---3-1-1-1-1---|
   You've got to start the car the ice has come
   got to start the car the ice has come
   got to start the car the ice... has. come

Solo: Guitar 2 (Guitar 1 does the same thing as the verses)

   D  D U D U   U D U   U D U   D  D U D U     D  D D  D  D
e|-----------------------------------------------------------|
B|-------------------------------------------------10--------|
G|-7b-5-------------------------7b-5-------------7----7------|
D|------7-x-7~--7-x-7~--7-x-7~-------7-x-7~/--7\9--------9/5-|
A|-----------------------------------------------------------|
E|-----------------------------------------------------------|

   D  D U D U   U D U   U D U   D  D U D U     D  D D  D  D
e|--------------------------------------------------------------------|
B|-------------------------------------------------10-----------------|
G|-7b-5-------------------------7b-5-------------7----7-----9\12--12~-|
D|------7-x-7~--7-x-7~--7-x-7~-------7-x-7~/--7\9--------9~-----------|
A|--------------------------------------------------------------------|
E|--------------------------------------------------------------------|


| /  slide up
| \  slide down
| h  hammer-on
| p  pull-off
| ~  vibrato
| +  harmonic
| x  Mute note
============================================================================





Comments


Popular Long Winters tabs & chords
Carparts Chords
Cinnamon Chords
Commander Thinks Aload Chords
It'll Be A Breeze Chords
Pushover Chords
Cinnamon Tabs
Blue Diamonds Ukulele
Cinnamon Ukulele
Commander Thinks Aload Ukulele
Not Moving To Portland Ukulele


Song lyrics



↑ Back to top | Tablatures and chords are parodies/interpretations of the original songs. You may use it for private study, scholarship, research or language learning purposes only
© 2014 AZChords.com Contact us | Privacy policy | DMCA | Add/correct tabs | Request tabs | Top 50 tabs