» » »

Longwave, Wake Me When It's Over Bass tabs (ver.1)

Artists:  A B C D E F G H I J K L M N O P Q R S T U V W X Y Z # 

Wake Me When It's Over Bass tabs (ver.1)

Longwave Tabs
 Rating:
4/5 (4 votes)
Wake Me When It's Over lessons Tabs too difficult? Try these video lessons and learn fast
1
                -----------------------------------------------------------------------------
-----------------------------------------------------------------------------

Tuning: Standard (GDAE)

Well, this is a pretty easy song, you just need to play 2 different (and easy) riffs:

Bass comes up at 0:21 with riff 1:
G|-----------------------------------------------------------------------|
D|-----------------------------------------------------------------------|
A|-----------------------------------------------------------------------|
E|-9-9-9-9-9-9-9-9-10-10-10-9-9-10-10-10-6-6-6-6-6-6-6-6-6-6-6-6-6-4-4-4-|

Play riff 1 until 2:58 (When all the noise si gone...) where it goes:
G|-----------------------------------------------------------------|
D|-----------------------------------------------------------------|
A|---------------------------------8-8-8-8-8-8-8-8-8-8-8-8-8-8-8-8-|
E|-4-4-4-4-4-4-4-4-4-4-4-4-4-4-4-4---------------------------------|

G|-----------------------------------------------------------------|
D|-----------------------------------------------------------------|
A|---------------------------------8-8-8-8-8-8-8-8-8-8-8-8-8-8-8-8-|
E|-6-6-6-6-6-6-6-6-6-6-6-6-6-6-6-6---------------------------------|

Play that second riff once and then play riif 1 until the song fades out.

| /  slide up
| \  slide down
| h  hammer-on
| p  pull-off
| ~  vibrato
| +  harmonic
| x  Mute note
=============================================================================
            
Submit corrections

comments powered by Disqus
↑ Back to top | Longwave Bass for Wake Me When It's Over. Lyrics for acoustic guitar and electric guitar. 1 Tablatures and chords are parodies/interpretations of the original songs. You may use it for private study, scholarship, research or language learning purposes only