>
 >
Tidal Wave

Tidal Wave Bass Tabs

Longwave - Tidal Wave chords, tabs, tablatures, lyrics

Guitar lessons | Add/correct | Request | Top 50 tabs Artists:  A B C D E F G H I J K L M N O P Q R S T U V W X Y Z 0-9

Tidal Wave Bass Tabs – Longwave

CD, Sheet music, Poster

Do you like Tidal Wave? Share with your friends now
Bass TabsChordsChords v2TabsUkuleleUkulele v2
-------------------------------------------------------------------------------
			     SONG NAME - Band Name
-------------------------------------------------------------------------------


Tuning: Standard (EADG)


Intro (No bass)

Verse 1 (0:07) 

Take me down in a tidal wave...

G|---------------------------------------------------------------------------|
D|---------------------------------------------------------------------------|
A|---------------------------------------------------------------------------| x3
E|7-7-7-7-7-7-7-7--3-3-3-3-3-3-3-3--10-10-10-10-10-10-10-10--5-5-5-5-5-5-5-5-|


Chorus (0:32) 

I am everything you wanted...

G|-----------------------------------|
D|-----------------------------------|
A|-----------------------------------| x3
E|-3-3-3-3-3-3-3-3--5-5-5-5--7-7-7-7-|


G|---------------------------------|
D|---------------------------------|
A|---------------------------------|
E|-3-3-3-3-3-3-3-3-3-3-3-3-3-3-3-3-|


Verse 2 (0:48)

Take me back to the other place...

G|---------------------------|
D|---------------------------|
A|---------------------------| x3
E|-7-7---3-3---10-10---5-5---|

Pre-Chorus (1:12) 

I am everything you wanted...

G|-----------------------------------|
D|-----------------------------------|
A|-----------------------------------|
E|-3-3-3-3-3-3-3-3--5-5-5-5--7-7-7-7-|



G|---------------------------------|
D|---------------------------------|
A|---------------------------------|
E|-3-3-3-3-3-3-3-3-3-3-3-3-3-3-3-3-|


Chorus (1:28) 

But I can feel it again...

A|---------------------------------------------------------------------------|
A|---------------------------------------------------------------------------|
A|---------------------------------------------------------------------------| x2
E|-10-10-10-10-10-10-10-10--5-5-5-5-5-5-5-5--7-7-7-7-7-7-7-7-7-7-7-7-7-7-7-7-|


Chorus part 2 (1:45) 

I am everything you wanted...

G|-----------------------------------|
D|-----------------------------------|
A|-----------------------------------| x3
E|-3-3-3-3-3-3-3-3--5-5-5-5--7-7-7-7-|



G|---------------------------------|
D|---------------------------------|
A|---------------------------------|
E|-3-3-3-3-3-3-3-3-3-3-3-3-3-3-3-3-|

Verse 3 (1:57)

Give me the colors of a different light...

G|---------------------------|
D|---------------------------|
A|---------------------------| x3
E|-7-7---3-3---10-10---5-5---|


Pre-chorus (2:20) 

I am everything you wanted...

G|-----------------------------------|
D|-----------------------------------|
A|-----------------------------------| x3
E|-3-3-3-3-3-3-3-3--5-5-5-5--7-7-7-7-|



G|---------------------------------|
D|---------------------------------|
A|---------------------------------|
E|---------------------------------|
E|-3-3-3-3-3-3-3-3-3-3-3-3-3-3-3-3-|


Chorus (2:34) 

But I can feel it again...

A|---------------------------------------------------------------------------|
A|---------------------------------------------------------------------------|
A|---------------------------------------------------------------------------| x2
E|-10-10-10-10-10-10-10-10--5-5-5-5-5-5-5-5--7-7-7-7-7-7-7-7-7-7-7-7-7-7-7-7-|


Chorus part 2 (2:50) 

I am everything you wanted...

G|-----------------------------------|
D|-----------------------------------|
A|-----------------------------------| x3
E|-3-3-3-3-3-3-3-3--5-5-5-5--7-7-7-7-|

Outro


G|-----------------------------------|
D|-----------------------------------|
A|-----------------------------------| x4
E|-3-3-3-3-3-3-3-3--5-5-5-5--7-7-7-7-|

End

G|----|
D|----|
A|----|
E|-3--|





Comments


Popular Longwave tabs & chords
Everywhere You Turn 1 Bass Tabs
Wake Me When It's Over Bass Tabs
Here It Comes Chords
Tidal Wave Chords
Tidal Wave 2 Chords
I Don't Dare Tabs
No Direction Tabs
Shining Hours Tabs
Tell Me Im Wrong Tabs
Tidal Wave Ukulele


Song lyrics



↑ Back to top | Tablatures and chords are parodies/interpretations of the original songs. You may use it for private study, scholarship, research or language learning purposes only
© 2014 AZChords.com Contact us | Privacy policy | DMCA | Add/correct tabs | Request tabs | Top 50 tabs