>
 >
Tidal Wave

Tidal Wave Guitar Tabs

Longwave - Tidal Wave chords, tabs, tablatures, lyrics

Guitar lessons | Add/correct | Request | Top 50 tabs Artists:  A B C D E F G H I J K L M N O P Q R S T U V W X Y Z 0-9

Tidal Wave Guitar Tabs – Longwave

CD, Sheet music, Poster

Do you like Tidal Wave? Share with your friends now
Bass TabsChordsChords v2TabsUkuleleUkulele v2
-------------------------------------------------------------------------------
-------------------------------------------------------------------------------

Tuning:eBGDAE (standard)

Hey, this is my first time to tab, so be patient if there are a few mistakes.
Also, there were other parts that I couldn't quite figure out, so just listen
to the song to get it 100% right.

Guitar 1's parts

Intro

e|-----7----------------------|
B|---7---7---10-------8-----7-|
G|-7-------7-----7--7---7-----|
D|----------------9-------9---|
A|----------------------------|
E|----------------------------|

e|-----------------|
B|-----7-----5---7-|
G|---7---7-----7---| 
D|-7-------7-------|
A|-----------------|
E|-----------------|


Verse 1 (0:07)

Take me down in a tidal wave...

e|-----7----------------------|
B|---7---7---10-------8-----7-|
G|-7-------7-----7--7---7-----|
D|----------------9-------9---|
A|----------------------------|
E|----------------------------|

e|-----------------|
B|-----7-----5---7-|
G|---7---7-----7---|
D|-7-------7-------|
A|-----------------|
E|-----------------|


Chorus (0:32) 

I am everything you wanted...

e|-----------------|
B|-----7-----5---7-|
G|---7---7-----7---|
D|-7-------7-------|
A|-----------------|
E|-----------------|


Verse 2 (0:48)

Take me back to the other place...

e|-----7----------------------|
B|---7---7---10-------8-----7-|
G|-7-------7-----7--7---7-----|
D|----------------9-------9---|
A|----------------------------|
E|----------------------------|

e|-----------------|
B|-----7-----5---7-|
G|---7---7-----7---|
D|-7-------7-------|
A|-----------------|
E|-----------------|


Chorus (1:12) 

I am everything you wanted...

e|-----------------|
B|-----7-----5---7-|
G|---7---7-----7---|
D|-7-------7-------|
A|-----------------|
E|-----------------|


Bridge (1:28) 

But I can feel it again...

e|--------------------------------------------------------------------------|
B|--------------------------------------------------------------------------|
G|--------------------------6-6-6-6-6-6-6-6---------------------------------|
D|-12-12-12-12-12-12-12-12--7-7-7-7-7-7-7-7--9-9-9-9-9-9-9-9-9-9-9-9-9-9-9-9|
A|-12-12-12-12-12-12-12-12--7-7-7-7-7-7-7-7--9-9-9-9-9-9-9-9-9-9-9-9-9-9-9-9|
E|-10-10-10-10-10-10-10-10--5-5-5-5-5-5-5-5--7-7-7-7-7-7-7-7-7-7-7-7-7-7-7-7|


Chorus (1:45) 

I am everything you wanted...

e|-----------------|
B|-----7-----5---7-|
G|---7---7-----7---|
D|-7-------7-------|
A|-----------------|
E|-----------------|


Verse 3 (1:57)

Give me the colors of a different light...

e|-----7----------------------|
B|---7---7---10-------8-----7-|
G|-7-------7-----7--7---7-----|
D|----------------9-------9---|
A|----------------------------|
E|----------------------------|

e|-----------------|
B|-----7-----5---7-|
G|---7---7-----7---|
D|-7-------7-------|
A|-----------------|
E|-----------------|


Chorus (2:20) 

I am everything you wanted...

e|-----------------|
B|-----7-----5---7-|
G|---7---7-----7---|
D|-7-------7-------|
A|-----------------|
E|-----------------|


Bridge (2:37)

But I can feel it again...

e|--------------------------------------------------------------------------|
B|--------------------------------------------------------------------------|
G|--------------------------6-6-6-6-6-6-6-6---------------------------------|
D|-12-12-12-12-12-12-12-12--7-7-7-7-7-7-7-7--9-9-9-9-9-9-9-9-9-9-9-9-9-9-9-9|
A|-12-12-12-12-12-12-12-12--7-7-7-7-7-7-7-7--9-9-9-9-9-9-9-9-9-9-9-9-9-9-9-9|
E|-10-10-10-10-10-10-10-10--5-5-5-5-5-5-5-5--7-7-7-7-7-7-7-7-7-7-7-7-7-7-7-7|


Chorus (2:52) 

I am everything you wanted...

e|-----------------|
B|-----7-----5---7-|
G|---7---7-----7---|
D|-7-------7-------|
A|-----------------|
E|-----------------|


Song sequence

Intro      2x
Verse 1    3x
Chorus     8x
Verse 2    3x
Bridge     2x
Chorus     6x
Verse 3    3x
Chorus     8x
Bridge     2x
Chorus    15x


Guitar 2's parts

Intro



Verse 1 (0:07) 

Take me down in a tidal wave...
e|---------------------------------------------------------------------------|
B|---------------------------------------------------------------------------|
G|-----------------4-4-4-4-4-4-4-4---------------------------6-6-6-6-6-6-6-6-|
D|9-9-9-9-9-9-9-9--5-5-5-5-5-5-5-5--12-12-12-12-12-12-12-12--7-7-7-7-7-7-7-7-|
A|9-9-9-9-9-9-9-9--5-5-5-5-5-5-5-5--12-12-12-12-12-12-12-12--7-7-7-7-7-7-7-7-|
E|7-7-7-7-7-7-7-7--3-3-3-3-3-3-3-3--10-10-10-10-10-10-10-10--5-5-5-5-5-5-5-5-|


Chorus (0:32) 

I am everything you wanted...

e|-----------------------------------|
B|-----------------------------------|
G|-4-4-4-4-4-4-4-4--6-6-6-6----------|
D|-5-5-5-5-5-5-5-5--7-7-7-7--9-9-9-9-|
A|-5-5-5-5-5-5-5-5--7-7-7-7--9-9-9-9-|
E|-3-3-3-3-3-3-3-3--5-5-5-5--7-7-7-7-|


e|---------------------------------|
B|---------------------------------|
G|-4-4-4-4-4-4-4-4-4-4-4-4-4-4-4-4-|
D|-5-5-5-5-5-5-5-5-5-5-5-5-5-5-5-5-|
A|-5-5-5-5-5-5-5-5-5-5-5-5-5-5-5-5-|
E|-3-3-3-3-3-3-3-3-3-3-3-3-3-3-3-3-|


Verse 2 (0:48)

Take me back to the other place...

e|---------------------------------------------------------------------------|
B|---------------------------------------------------------------------------|
G|-----------------4-4-4-4-4-4-4-4---------------------------6-6-6-6-6-6-6-6-|
D|9-9-9-9-9-9-9-9--5-5-5-5-5-5-5-5--12-12-12-12-12-12-12-12--7-7-7-7-7-7-7-7-|
A|9-9-9-9-9-9-9-9--5-5-5-5-5-5-5-5--12-12-12-12-12-12-12-12--7-7-7-7-7-7-7-7-|
E|7-7-7-7-7-7-7-7--3-3-3-3-3-3-3-3--10-10-10-10-10-10-10-10--5-5-5-5-5-5-5-5-|


Chorus (1:12) 

I am everything you wanted...

e|-----------------------------------|
B|-----------------------------------|
G|-4-4-4-4-4-4-4-4--6-6-6-6----------|
D|-5-5-5-5-5-5-5-5--7-7-7-7--9-9-9-9-|
A|-5-5-5-5-5-5-5-5--7-7-7-7--9-9-9-9-|
E|-3-3-3-3-3-3-3-3--5-5-5-5--7-7-7-7-|


e|---------------------------------|
B|---------------------------------|
G|-4-4-4-4-4-4-4-4-4-4-4-4-4-4-4-4-|
D|-5-5-5-5-5-5-5-5-5-5-5-5-5-5-5-5-|
A|-5-5-5-5-5-5-5-5-5-5-5-5-5-5-5-5-|
E|-3-3-3-3-3-3-3-3-3-3-3-3-3-3-3-3-|


Bridge (1:28) 

But I can feel it again...

e|---------------------------------------------------------------------------|
B|---------------------------------------------------------------------------|
G|--------------------------6-6-6-6-6-6-6-6----------------------------------|
D|-12-12-12-12-12-12-12-12--7-7-7-7-7-7-7-7--9-9-9-9-9-9-9-9-9-9-9-9-9-9-9-9-|
A|-12-12-12-12-12-12-12-12--7-7-7-7-7-7-7-7--9-9-9-9-9-9-9-9-9-9-9-9-9-9-9-9-|
E|-10-10-10-10-10-10-10-10--5-5-5-5-5-5-5-5--7-7-7-7-7-7-7-7-7-7-7-7-7-7-7-7-|


Chorus (1:45) 

I am everything you wanted...

e|-----------------------------------|
B|-----------------------------------|
G|-4-4-4-4-4-4-4-4--6-6-6-6----------|
D|-5-5-5-5-5-5-5-5--7-7-7-7--9-9-9-9-|
A|-5-5-5-5-5-5-5-5--7-7-7-7--9-9-9-9-|
E|-3-3-3-3-3-3-3-3--5-5-5-5--7-7-7-7-|


e|---------------------------------|
B|---------------------------------|
G|-4-4-4-4-4-4-4-4-4-4-4-4-4-4-4-4-|
D|-5-5-5-5-5-5-5-5-5-5-5-5-5-5-5-5-|
A|-5-5-5-5-5-5-5-5-5-5-5-5-5-5-5-5-|
E|-3-3-3-3-3-3-3-3-3-3-3-3-3-3-3-3-|


Verse 3 (1:57)

Give me the colors of a different light...

e|---------------------------------------------------------------------------|
B|---------------------------------------------------------------------------|
G|-----------------4-4-4-4-4-4-4-4---------------------------6-6-6-6-6-6-6-6-|
D|9-9-9-9-9-9-9-9--5-5-5-5-5-5-5-5--12-12-12-12-12-12-12-12--7-7-7-7-7-7-7-7-|
A|9-9-9-9-9-9-9-9--5-5-5-5-5-5-5-5--12-12-12-12-12-12-12-12--7-7-7-7-7-7-7-7-|
E|7-7-7-7-7-7-7-7--3-3-3-3-3-3-3-3--10-10-10-10-10-10-10-10--5-5-5-5-5-5-5-5-|


Chorus (2:20) 

I am everything you wanted...

e|-----------------------------------|
B|-----------------------------------|
G|-4-4-4-4-4-4-4-4--6-6-6-6----------|
D|-5-5-5-5-5-5-5-5--7-7-7-7--9-9-9-9-|
A|-5-5-5-5-5-5-5-5--7-7-7-7--9-9-9-9-|
E|-3-3-3-3-3-3-3-3--5-5-5-5--7-7-7-7-|


e|---------------------------------|
B|---------------------------------|
G|-4-4-4-4-4-4-4-4-4-4-4-4-4-4-4-4-|
D|-5-5-5-5-5-5-5-5-5-5-5-5-5-5-5-5-|
A|-5-5-5-5-5-5-5-5-5-5-5-5-5-5-5-5-|
E|-3-3-3-3-3-3-3-3-3-3-3-3-3-3-3-3-|


Bridge (2:37)

But I can feel it again...

e|---------------------------------------------------------------------------|
B|---------------------------------------------------------------------------|
G|--------------------------6-6-6-6-6-6-6-6----------------------------------|
D|-12-12-12-12-12-12-12-12--7-7-7-7-7-7-7-7--9-9-9-9-9-9-9-9-9-9-9-9-9-9-9-9-|
A|-12-12-12-12-12-12-12-12--7-7-7-7-7-7-7-7--9-9-9-9-9-9-9-9-9-9-9-9-9-9-9-9-|
E|-10-10-10-10-10-10-10-10--5-5-5-5-5-5-5-5--7-7-7-7-7-7-7-7-7-7-7-7-7-7-7-7-|


Chorus (2:52) 

I am everything you wanted...

e|-----------------------------------|
B|-----------------------------------|
G|-4-4-4-4-4-4-4-4--6-6-6-6----------|
D|-5-5-5-5-5-5-5-5--7-7-7-7--9-9-9-9-|
A|-5-5-5-5-5-5-5-5--7-7-7-7--9-9-9-9-|
E|-3-3-3-3-3-3-3-3--5-5-5-5--7-7-7-7-|

and end in

e|----|
B|----|
G|-4--|
D|-5--|
A|-5--|
E|-3--|


Song sequence

Verse 1   3x
Chorus    3x
Verse 2   3x
Chorus    3x
Bridge    2x
Chorus    2x
Verse 3   3x
Chorus    3x
Bridge    2x
Chorus    7x





Comments


Popular Longwave tabs & chords
Everywhere You Turn Bass Tabs
Everywhere You Turn 1 Bass Tabs
Tidal Wave Chords
Tidal Wave 2 Chords
Day Sleeper Tabs
Ghosts Around You Tabs
Life Of The Party Tabs
No Direction Tabs
Next Plateau Ukulele
Tidal Wave Ukulele


Song lyrics



↑ Back to top | Tablatures and chords are parodies/interpretations of the original songs. You may use it for private study, scholarship, research or language learning purposes only
© 2014 AZChords.com Contact us | Privacy policy | DMCA | Add/correct tabs | Request tabs | Top 50 tabs