>
 >
No Direction

No Direction Guitar Tabs

Longwave - No Direction chords, tabs, tablatures, lyrics

Guitar lessons | Add/correct | Request | Top 50 tabs Artists:  A B C D E F G H I J K L M N O P Q R S T U V W X Y Z 0-9

No Direction Guitar Tabs – Longwave

CD, Sheet music, Poster

Do you like No Direction? Share with your friends now
Tabs
this is the first tab i have ever submitted, ive written others, and i think
what i have is right, i was hoping someone could finish this for me


standard tuning

~    vibrato
(x2) play riff twice
x    dead note (its like harmonics but the sound is muted)
/    slide up
\    slide down
*    see note at bottom of tab

INTRO
play this while using the whammy bar,(thats how they do it in the music video)
e|-----------------------------------------------------------------------|
B|--12--11-12--11-12--11-12--9~---14~--16~-------------------------------|
G|-----------------------------------------------------------------------|
D|-----------------------------------------------------------------------|
A|-----------------------------------------------------------------------|
E|-----------------------------------------------------------------------|


e|----11---11-------------------------11---11------------------14--------|
B|-----------12----12-11---11-----------------12---12-11---11------------|
G|--11------------------------11---11------------------------------------|
D|-----------------------------------------------------------------------|
A|-----------------------------------------------------------------------|
E|-----------------------------------------------------------------------|


e|-14-11---11-------------------------11------11----11----11----11-------|
B|-----------12----12-11---11--------------------------------------------|
G|----------------------------11---11-------11----11----11----11---------|
D|-----------------------------------------------------------------------|
A|-----------------------------------------------------------------------|
E|-----------------------------------------------------------------------|


VERSE
Each chord is played 16 times
e|--11--7--11--7--6--11--6--11----|
B|--12--9--12--9--7--12--7--12----|
G|--13--9--13--9--8--13--8--13----|
D|--13--9--13--9--8--13--8--13----|
A|--11--7--11--7--6--11--6--11----|
E|--------------------------------|(x2)

CHORUS
Theres supposed to be eight 9s at the end but i couldn't fit them
e|-----------------------------------------------------------------------|
B|-------------------------------------9-9-9-----------------------------|
G|-11-11-11-11-11-11-11-11-11-11-11-11-------8-8-8-8-8-8-8---------------|
D|---------------------------------------------------------11-11-9-9-9-9-|
A|-----------------------------------------------------------------------|
E|-----------------------------------------------------------------------|(x2)

then play this again

e|----11---11-------------------------11---11------------------14--------|
B|-----------12----12-11---11-----------------12---12-11---11------------|
G|--11------------------------11---11------------------------------------|
D|-----------------------------------------------------------------------|
A|-----------------------------------------------------------------------|
E|-----------------------------------------------------------------------|


e|-14-11---11-------------------------11------11----11----11----11-------|
B|-----------12----12-11---11--------------------------------------------|
G|----------------------------11---11-------11----11----11----11---------|
D|-----------------------------------------------------------------------|
A|-----------------------------------------------------------------------|
E|-----------------------------------------------------------------------|

VERSE 2
first 3 chords played with some sort of effect, the rest is played just like the first verse
e|--6--7--6--11--7--11--7--11----|
B|--7--9--7--12--9--12--9--12----|
G|--8--9--8--13--9--13--9--13----|
D|--8--9--8--13--9--13--9--13----|
A|--6--7--6--11--7--11--7--11----|
E|-------------------------------|

CHORUS 2
Same as chorus 1
Theres supposed to be eight 9s at the end but i couldn't fit them
e|-----------------------------------------------------------------------|
B|-------------------------------------9-9-9-----------------------------|
G|-11-11-11-11-11-11-11-11-11-11-11-11-------8-8-8-8-8-8-8---------------|
D|---------------------------------------------------------11-11-9-9-9-9-|
A|-----------------------------------------------------------------------|
E|-----------------------------------------------------------------------|(x2)

BRIDGE
Played in that same strange effect as the beginning of verse 2
e|--6--7--6--7--6--7--6--7---|
B|--7--9--7--9--7--9--7--9---|
G|--8--9--8--9--8--9--8--9---|
D|--8--9--8--9--8--9--8--9---|
A|--6--7--6--7--6--7--6--7---|
E|---------------------------|

then some pick slide thingy

SOLO

e|-----------------------------------------------------------------|
B|-----------------------------------------------------------------|
G|-11-11-11-11-11-11-11-11-11-11-11-11-13-13-13-13-----------------|
D|-----------------------------------------------------------------|
A|-----------------------------------------------------------------|
E|-----------------------------------------------------------------|

e|-----------------------------------------------------------------------|
B|--------16-16-16-16-14-14-14-14-12-12-12-12-11-11-11-11----------------|
G|-----------------------------------------------------------------------|
D|-----------------------------------------------------------------------|
A|-----------------------------------------------------------------------|
E|-----------------------------------------------------------------------|

e|------------------------------------------------------------------|
B|------------------------------------------------------------------|
G|-11-11-x-11-11-11-x-11-11-11-11-13-13-13-13\----------------------|
D|------------------------------------------------------------------|
A|------------------------------------------------------------------|
E|------------------------------------------------------------------|

e|---23-23-23-23*--21-21-21-21-------------------------------------------|
B|----------------------------------------14--16--14---------------------|
G|-----------------------------------------------------------------------|
D|-----------------------------------------------------------------------|
A|---------------------------------14-14---------------------------------|
E|-----------------------------------------------------------------------|

not so sure about the this part,this is as close as i can get

e|---------------------------16-------19--------21---23---24---24b26---|
B|------12--14--16-----------------------------------------------------|
G|--13--------------------13----13/17-----17/18----21---22---24--------|
D|---------------------------------------------------------------------|
A|---------------------------------------------------------------------|
E|---------------------------------------------------------------------|
im pretty sure this is right
e|-------------------------------------------------------------------------|
B|-14-12-11----------16-14-12----------14-12-11----------16-14-12----------|
G|----------13-11-------------15-13-------------13-11-------------15-13----|
D|----------------13----------------16----------------13----------------16-|
A|-------------------------------------------------------------------------|
E|-------------------------------------------------------------------------|

e|-----------------------------------------------------------------|
B|-14-12-11----16-14-12----17-16-14----19-17-16----21-19-17--------|
G|----------13----------15----------16----------18----------18-----|
D|-----------------------------------------------------------------|
A|-----------------------------------------------------------------|
E|-----------------------------------------------------------------|

e|-----------------------------------------------------------------------|
B|--------21-21-21-21-21-21-21-21-21-21-21-21-21-21-21-21----------------|
G|-----------------------------------------------------------------------|
D|-----------------------------------------------------------------------|
A|-----------------------------------------------------------------------|
E|-----------------------------------------------------------------------|

CHORUS 3
Theres supposed to be eight 9s at the end but i couldn't fit them
e|-----------------------------------------------------------------------|
B|-------------------------------------9-9-9-----------------------------|
G|-11-11-11-11-11-11-11-11-11-11-11-11-------8-8-8-8-8-8-8---------------|
D|---------------------------------------------------------11-11-9-9-9-9-|
A|-----------------------------------------------------------------------|
E|-----------------------------------------------------------------------|(x4)

OUTRO

e|----14-----14-12---12-11-------|
B|-12----------------------------|
G|-------------------------------|
D|-------------------------------|
A|-------------------------------|
E|-------------------------------|(x7)

e|------16---------16----------16-------16------16------14~--------------|
B|--12---------12----------12-------12------12-------12------------------|
G|-----------------------------------------------------------------------|
D|-----------------------------------------------------------------------|
A|-----------------------------------------------------------------------|
E|-----------------------------------------------------------------------|


*****my guitar only has 21 frets so anything over that is just a guess*****

if anyone finds any mistakes or anything feel free to correct it or past a
new tab or whatever, i dont think its all right but i tabbed it the best i
could and it took a while. like 3 hours.





Comments


Popular Longwave tabs & chords
Here It Comes Chords
Ghosts Around You Tabs
Ghosts Around You 1 Tabs
Life Of The Party Tabs
Tell Me Im Wrong Tabs
Tidal Wave Tabs
Here It Comes Ukulele
Next Plateau Ukulele
Tidal Wave Ukulele
Tidal Wave 2 Ukulele


Song lyrics



↑ Back to top | Tablatures and chords are parodies/interpretations of the original songs. You may use it for private study, scholarship, research or language learning purposes only
© 2014 AZChords.com Contact us | Privacy policy | DMCA | Add/correct tabs | Request tabs | Top 50 tabs