» » »

Tools Of Persuasion Chords (ver.1)

Artists:  A B C D E F G H I J K L M N O P Q R S T U V W X Y Z # 

Tools Of Persuasion Chords (ver.1)

London Anderson
Rating:
0/5 (0 votes)

Tabs too difficult? Try these video lessons and learn fast.
                This is my first tab that I did by ear so I hope you enjoy!


Intro:
E||------------------------------------------------------------|
B||------------9----9-------------------9----9----9----9-------|
G||9----9------10---10------9----9------10---10---10---10------|
D||10---10-----10---10------10---10-----10---10---10---10------|
A||10---10-----8----8-------10---10-----8----8----8----8-------|
E||8----8-------------------8----8-----------------------------|(x2)

C            F              Dm
The way your hands know her body better
   G7
is making me sick.
C        F             Dm
The idea that you once undressed her
G7
isn't that much better.
C     F                 Dm
And I know it's foolish of me to have
G7
expected you to wait
C          F                       Dm         G7
but it's a nice thought to think.
C                F
Maybe in another lifetime
             Dm               F
I'd been the first girl you'd meet
'cuz...

E||------------------------------------------------------------|
B||------------9----9-------------------9----9----9----9-------|
G||9----9------10---10------9----9------10---10---10---10------|
D||10---10-----10---10------10---10-----10---10---10---10------|
A||10---10-----8----8-------10---10-----8----8----8----8-------|
E||8----8-------------------8----8-----------------------------|(x3)
My body's not a tool of persuasion.

E||------------------------------------------------------------|
B||------------9----9-------------------9----9----9----9-------|
G||9----9------10---10------9----9------10---10---10---10------|
D||10---10-----10---10------10---10-----10---10---10---10------|
A||10---10-----8----8-------10---10-----8----8----8----8-------|
E||8----8-------------------8----8-----------------------------|(x2)

(Same chords as first verse)
Was she worth it all to you?
I know it's wrong to ask.
I mean you were with her for...
you know.
The past is in the past.
But I can't help but to wonder will 
you be comparing us two?
Side by side I look better than her
even on a bad day
'cuz...

E||------------------------------------------------------------|
B||------------9----9-------------------9----9----9----9-------|
G||------------10---10------9----9------10---10---10---10------|
D||------10----10---10------10---10-----10---10---10---10------|
A||--10--------8----8-------10---10-----8----8----8----8-------|
E||8------------------------8----8-----------------------------|
My body's not a tool of persuasion.

E||------------------------------------------------------------|
B||------------9----9-------------------9----9----9----9-------|
G||9----9------10---10------9----9------10---10---10---10------|
D||10---10-----10---10------10---10-----10---10---10---10------|
A||10---10-----8----8-------10---10-----8----8----8----8-------|
E||8----8-------------------8----8-----------------------------|(x2)

**This part is really fast**

E||---------------------------------|
B||------------------9----9----9----|
G||9----9----9-------10---10---10---|
D||10---10---10------10---10---10---|
A||10---10---10------8----8----8----|
E||8----8----8----------------------|(x8)

I'm not here to give you want you want
even if it's what you think you need.
And I'm not here to give you what you need
even if it's what you think you want. (x2)
Because...

E||------------------------------------------------------------|
B||------------9----9-------------------9----9----9----9-------|
G||9----9------10---10------9----9------10---10---10---10------|
D||10---10-----10---10------10---10-----10---10---10---10------|
A||10---10-----8----8-------10---10-----8----8----8----8-------|
E||8----8-------------------8----8-----------------------------|(x3)

My body's not a tool of persuasion. 

(Play the intro over and over and let last chord ring)
Da da da da da
Da da da da da
Da da da da da
Da da da da da da da
yeah, yeah, yeah yeah
Da da da
Oh oh uh oh.

'Cuz my body's not a tool of persuasion.
            
Tabs too difficult? Try these video lessons and learn fast.


comments powered by Disqus
↑ Back to top | Tablatures and chords are parodies/interpretations of the original songs. You may use it for private study, scholarship, research or language learning purposes only