>
 >
House On Pooh Corner Intro

House On Pooh Corner Intro Guitar Tabs

Loggins Kenny - House On Pooh Corner Intro chords, tabs, tablatures, lyrics

Guitar lessons | Add/correct | Request | Top 50 tabs Artists:  A B C D E F G H I J K L M N O P Q R S T U V W X Y Z 0-9

House On Pooh Corner Intro Guitar Tabs – Loggins Kenny

CD, Sheet music, Poster

Do you like House On Pooh Corner Intro? Share with your friends now
Tabs
E ---0----0----0----0-0--------0-----------------------0--------------||
B -/542----------------------00-------------------0----0----------||
G ----------4----2----4-1----------1-------1----2-----------2-------||
D ------------------------------------2--4---2----------------2-----||
A -----------------------------------------------------------------------------||
E -----------------------------------------------------------------------------||


E ----0-------0----0----||--0-||
B -/5-42--------------||--0-|| Let last chord ring
G ---------------4----2-||--2-||
D ----------------------||----||
A ----------------------||----||
E ----------------------||----||





Comments


Popular Loggins Kenny tabs & chords
Dannys Song Chords
For The First Time Chords
House At Pooh Corner Chords
One Promise Too Late Chords
Rainbow Connection Chords
Vahevala Chords
Welcome To Heartlight Chords
Your Heart Will Lead You Home Chords
For The First Time Tabs
Welcome To Heartlight Tabs


Song lyrics



↑ Back to top | Tablatures and chords are parodies/interpretations of the original songs. You may use it for private study, scholarship, research or language learning purposes only
© 2014 AZChords.com Contact us | Privacy policy | DMCA | Add/correct tabs | Request tabs | Top 50 tabs