» » »

Loggins Kenny, For The First Time Tabs (ver.1)

Artists:  A B C D E F G H I J K L M N O P Q R S T U V W X Y Z # 

For The First Time Tabs (ver.1)

Loggins Kenny Tabs
Rating:
0/5 (0 votes)
For The First Time lessons Tabs too difficult? Try these video lessons and learn fast
                "For the First Time" by Kenny Loggins
                                                 Submitted by: C.Y. NG
   Intro:                                                        Verse 1:
e:-----3-------3---|------3---------|-----3-------3---|-----3-----------|
B:-0-3---0---1-----|--0-3---0-1-----|-0-3-3-0---1-3---|-0-3-3-0---------|
G:---------2-----2-|------------0-2-|---------2-----2-|---------2-------|
D:-----------------|----------------|-----------------|---------0-------|
A:-----------------|----------------|-----------------|---------0-------|
E:-3-----3-1-----1-|-3------3-1---1-|-3-----3-1-----1-|-3-----3---------|
                                                                  Are...




e:-----------------|-2-------0-------|-0----------------------|
B:-0-------1-------|-3-------0-------|-1------------3--3------|
G:-0-------2-------|-2-------0-------|-2----------0----0------|
D:-----------------|-----------------|----------2-------------|
A:-2-------0-------|-0-------0-------|-0---------------2------|
E:-----------------|-----------------|------------------------|
  eyes?      Is...  smile?     I've...Looking...forever..but..




e:-------0-----2----------|-----------------|---------0-------|
B:-1-----1-----3----------|-0---------0-----|-3---3-3-1-------|
G:-0-----0-----2-------2--|-0-----------0---|-4-------0-------|
D:-2-----2-----0-----0----|---------0-------|-----------------|
A:-0-----0---------0------|-2---------------|-2-------3-------|
E:------------------------|-----------------|-----------------|
  never saw..before..Are.. hands?     Holding mine       Now I



                                              Chorus:
e:---------------------------|-2-----------2---------|----------------------|
B:-0-----------1-------------|-3---------3---3-------|-0--------3-----------|
G:-0-----0-0-0-2-------2-2-2-|-2-------2-----2-------|-0----------2---------|
D:-------2-2-2---------2-2-2-|-0-------0-----0-------|--------------0-------|
A:-------------0-------------|---------------0-------|----------------0-----|
E:-0-------------------------|-----------------------|-3--------------------|
  wonder how I could...been so blind          For the first time         I am




e:------------------------------|-------3---0-------|-----------------|
B:-0-------0-------3------3-----|-0-------3-1-------|-1--------3-1----|
G:-0-------0-------2------2-----|-0---------0-------|-0--------2-0----|
D:------------------------------|-------------------|----------0------|
A:-----------------0------0-----|-----------3-------|-3----------3----|
E:-0-------0--------------------|-0-----------------|-----------------|
   looking in your eyes    For...first..I'm   seeing who u are     I...





e:--------------------------|-1-1----1-1-----0---------|
B:-0------------0---0-0-----|-0-0----0-0-----1---------|
G:-0--------------0---------|-0-0----0-0-----0---------|
D:--------------------------|--------------------------|
A:-0------------------------|-0-0----0-0-----3---------|
E:--------------------------|--------------------------|
    how much..seen    When...looking back at me   Now I




e:----------------0-----------|--------------2--------|
B:-0-------3------0---------0-|-------1------3--------|
G:-0---------0----0-------0---|---------0----2--------|
D:----------------------------|-----2--------0--------|
A:-2--------------2-----------|-----------------------|
E:----------------------------|-----------------------|
  understand what love is      Love is         for the



                                         Verse 2:
e:---3-----------3----------|-----------2-------|-----------------------|
B:---0-------3---0---------1|-----------3-------|-0-------3-------1-----|
G:---0---------0---------0--|-----3h2---2-------|-0-----0-------2-------|
D:---------------------2----|---2-------0-------|-----0-------2---------|
A:-------------------3------|-3-----------------|-0---------------------|
E:---3----------------------|-------------------|-----------------------|
  first time                              Can... real?            Can...




e:-----------0--------|-3-----------------------|
B:-----0-----0--------|-0-----------------------|
G:-------0------------|-0--------0--------------|
D:---0----------------|------------0------------|
A:-----------2--------|--------------3----------|
E:-----------0--------|-3--------------3--------|
  true?        But the person...morning  And are




e:-----------------------------|--------------------|---------3---3------|
B:-1--------------3------3-----|-0-------0----------|-0-------0---0-1----|
G:-2--------------2------2-----|-0---------0--------|-0-------0---0-0----|
D:-----------------------------|-------0------------|--------------------|
A:-0--------------0------0-----|--------------------|---------------3----|
E:-----------------------------|-3------------------|-3-------3---3------|
  you the same in you?...all so strange      How can it be        All the





e:---------------------------------|-2-------2-2-2---|
B:-0------0--------1--------1------|-3-------3-3-3---|
G:-0------0--------2--------2------|-2-------2-2-2---|
D:---------------------------------|-0-------0-0-0---|
A:-2------2--------0--------0------|-----------------|
E:-0------0------------------------|-----------------|
  longest love is right in front of me




e:--------------------------|
B:--------------------------|
G:--------------------------|
D:--------------------------|
A:--------------------------|
E:--------------------------|
  (Repeat Chorus once here.)



    Bridge:
e:--------|-------------------------0-0-0----|------------------------|
B:--------|-1-------1-1-1---1-------1-1-1----|-1----1------3----3-----|
G:--------|-2-------2-2-2---2-------2-2-2----|-2----2------2----2-----|
D:--------|----------------------------------|------------------------|
A:--------|-0-------0-0-0---0-------0-0-0----|-0----0------0----0-----|
E:--------|----------------------------------|------------------------|
    Such a long time ago                I had given up our fon--dest e-




e:-------------------|-------------------------|----------0---------|
B:-3---------3-------|-0---------------0-0-----|-5--------5---------|
G:-0-------0-2-------|-0-----0---0h2-----------|-4--------4---------|
D:-------0-----------|-----2-------------------|--------------------|
A:-----3-----0-------|-------------------------|-4--------4---------|
E:-3-----------------|-0-----------------------|--------------------|
  motion       ever a-gain             But u're here...now    u said




e:-------------------------|-2--------|---------0-0-------|
B:-2-----------------1-1---|-3--------|---0---0---0-------|
G:-3---------------------2-|-4--------|---1-------1-------|
D:-----------------1-------|----------|---2---------------|
A:-4-----------------------|-2--------|-------------------|
E:-2-----------------------|----------|---0-------0-------|
  "Found u some-how"          And...so sure




  Ending:
e:---0-5-------5---|---0-5---------0----|--------------------|
B:-1-----1-0-3---0-|-1-----1-0-2-4-0----|-2--------0---------|
G:-----------------|--------------------|-2----------1-------|
D:-0-----0---------|-0-----0------------|-2------------2-----|
A:---------3-----3-|--------------------|-0--------------2---|
E:-----------------|---------0----------|--------------------|
                                 For the first time      I am




e:-----------------------|-2------------2-----------|
B:-2---------0-----------|-3--------------3---------|
G:-2---------1-----------|-2----------------2-------|
D:-2---------2-----------|-0------------------0-----|
A:-----------------------|--------------------------|
E:-2---------4-----------|--------------------------|
  looking...eyes  For the first time I'm      seeing




e:-------------------------|------------------------------------|
B:-0----------0------------|-0-----------------3----------------|
G:-1----------1------------|-1-----------------2----------------|
D:-------------------------|-2----------------------------------|
A:-2-----------------------|-2-----------------3----------------|
E:-------------------------|-------------------1----------------|
  who u are     I...believe    how much i've seen         When u




e:-0-------------2------------|-0-------------------1-|
B:---3-----------3------------|-2----------2----------|
G:---------------2------------|-2----------3------1---|
D:---------------0------------|-2---------------------|
A:----------------------------|-0---------------------|
E:----------------------------|------------2----------|
  looking...me           Now I understand what love is




e:-----------------------------|-0-----------------------|
B:-2-------------0-------------|-0-----------------------|
G:-3-------------1-------------|-1-----------------------|
D:-3---------------------------|-------------------------|
A:-----------------------------|-------------------------|
E:-2-------------0-------------|-0-----------------------|
            Love is                    for the first time




  Outro:
e:-0---0-------0---2-------2-|-2-------2-------------|-{3}--------|
B:-2-----2-2-------2-----2---|-3-------3---3/2/0-----|-{0}--------|
G:-2---------2-----2---2-----|-2-----2-----------2-2-|-{0}--------|
D:---------------------------|-0---0-----------------|-{0}--------|
A:-0-------------------------|-----------------------|-{2}--------|
E:-----------------2---------|-----------------------|-{3}--------|
            
Submit corrections

comments powered by Disqus
↑ Back to top | Loggins Kenny Tabs for For The First Time. Lyrics for acoustic guitar and electric guitar. Tablatures and chords are parodies/interpretations of the original songs. You may use it for private study, scholarship, research or language learning purposes only