» » »

Loggins And Messina, Your Mama Dont Dance Tabs (ver.1)

Artists:  A B C D E F G H I J K L M N O P Q R S T U V W X Y Z # 

Your Mama Dont Dance Tabs (ver.1)

Loggins And Messina Tabs
 Rating:
4/5 (4 votes)
Your Mama Dont Dance lessons Tabs too difficult? Try these video lessons and learn fast
1
                #   If you like this tab, please rate it above.  Thank you.

Loggins and Messina
Originally recorded in C, was later recorded in A by Kenny Loggins solo.

1st Guitar
(Pick two notes at a time with your fingers to get the right sound)
e|| -----------------------------------------------||
B|| -----------------------------------------------||
G||:--------5----------5----------5----------5----:||x2
D|| -5--5---5h7-5--5---5h7-5--5---5h7-5--5---5h7---||
A|| -3--6h7-----3--6h7-----3--6h7-----3--6h7-------||
E|| -----------------------------------------------||
2nd Guitar
e|------------------------------------|| ----------||
B|------------------------------------|| -10-8-----||
G|------------------------------------||:-10-8h9--:||x5
D|------------------------------------|| -------10-||
A|------------------------------------|| ----------||
E|------------------------------------|| ----------||
     C          F          C         C
e|| -----------------------------------------------||
B|| -----------------------------------------------||
G|| --------5--------------------5---------5-------|| 
D|| -5--5---5h7-------3----5--5--5h7-5--5--5h7-----||
A|| -3--6h7-----1--3--3h5--3--6h7----3--6h7--------||
E|| ------------1--4h5-----------------------------||
     F          F          C         C
e|| -----------------------------------------------||
B|| -----------------------------------------------||
G|| -----------------------------5---------5-------||
D|| --------3---------3----5--5--5h7-5--5--5h7-----||
A|| -1--3---3h5-1--3--3h5--3--6h7----3--6h7--------||
E|| -1--4h5-----1--4h5-----------------------------||
     G          F          C         C
e|| -----------------------------------------------||
B|| -----------------------------------------------||
G|| -----------------------------5---------5-------||
D|| --------5---------3----5--5--5h7-5--5--5h7-----||
A|| -3--5---5h7-1--3--3h5--3--6h7----3--6h7--------||
E|| -3--6h7-----1--4h5-----------------------------||

CHORUS: (Play pattern Lick first Chorus & Verse, Switch to Chords 2nd Chorus)
C                           F                     C
Your mama don't dance, your daddy don't rock and roll.
     F                                          C
Your mama don't dance, your daddy don't rock and roll.
     G                             F  
When evenin' comes around and it's time to go to town
         C
Where ya go to rock and roll.

1st VERSE: (Play intro lick)(BASS STARTS)
 C                     F                       C 
The old folks say that you gotta end your date by ten.
          F                                                 C
If you're out on a date and you bring it home late it's a sin.
G                                       F                    C
Just ain't no excusin', you know you're gonna lose and never win, I'll say it again. 
N/C
And it's all because-

(CHORUS) 
(Lead 1:Sax)(Lead 2:Guitar)(Then go to bridge with a walk up)
C  D  Eb  
BRIDGE:
E-F
You pull into a drive-in, you find a place to park.
E-F
You hop into the backseat, where you know it's nice and dark.
E-F
You're just about to move and you thinkin' it's a breeze,
E-F
There's a light in your eye and then a guy says:

OUTTA THE CAR LONG - HAIR!!!!
G                          F                       C
Louise, you're coming with me, and we'll call the police.

(CHORUS)
(Switch back to beginning lick)
         C
Where ya go to rock and roll.
         C
Where ya go to rock and roll.
         C
Where ya go to rock and roll.
            
Submit corrections

comments powered by Disqus
↑ Back to top | Loggins And Messina Tabs for Your Mama Dont Dance. Lyrics for acoustic guitar and electric guitar. 1 Tablatures and chords are parodies/interpretations of the original songs. You may use it for private study, scholarship, research or language learning purposes only