» » »

Local Natives, Sun Hands Tabs (ver.1)

Artists:  A B C D E F G H I J K L M N O P Q R S T U V W X Y Z # 

Sun Hands Tabs (ver.1)

Local Natives Tabs
Rating:
5/5 (1 vote)
Sun Hands lessons Tabs too difficult? Try these video lessons and learn fast
                -------------------------------------------------------------------------------
-------------------------------------------------------------------------------

Tuning:Drop D


< > - let ring
 . - play sticcato

Rest 8 counts,
then play

0:04
e|---------------------------------------------------------------|
b|-----------<3>------------3-<3>----------<3>------.------<3>---|
g|-2---0-3-<5>-----2p0-3-<5>------2---0-3-5--<5>----0-3/5-5--<5>-|
d|---3------------------------------3----------------------------|
a|---------------------------------------------------------------|
D|---------------------------------------------------------------|


0:17 *Let Ring Throughout
e|----------------------------------------------|
b|---1h3--1------1h3--1------1h3--1-----1h3--1--|
g|-2-----------2-----------2----------2---------|   x2
d|----------------------------------------------|
a|----------------------------------------------|
D|----------------------------------------------|


0:25
 I climbed to the top a hill,
e|------1----------1----------1--------------|
b|---1h3--3-----1h3--3-----1h3--3-----1h3p1--|
g|-2----------2-----------2----------2-----2-|   x8
d|---------------------------------3---------|
a|-------------------------------------------|
D|-------------------------------------------|

 but I had just missed the sun.
 And although the descending arc was gone
 left behind were the traces that always follow along.
 The most beautiful colors chase the sun.
 They wrap her trail in a taunting gesture
 that seems to sing out


O:55
 loud, "This is what you're missing".
e|----0------0------0------0-----0------0------0-----0---|
b|---3------3------3------3-----3------3------3-----3----|
g|-0----0-0----0-0----0-0----0-----0-0-----0-----0-----0-|
d|-----------------------------3-------------3-----3-----|
a|-------------------------------------------------------|
D|-------------------------------------------------------|


1:03
 Ah-ah-ah-ah Ah-ahhh. I'll endure the night. 
 Ah-ah-ah-ah Ah-ah-ahhh. For the promise of light.
e|---------------------------------------------------------------|
b|-----------<3>------------3-<3>----------<3>------.------<3>---|
g|-2---0-3-<5>-----2p0-3-<5>------2---0-3-5--<5>----0-3/5-5--<5>-|   x2
d|---3------------------------------3----------------------------|
a|---------------------------------------------------------------|
D|---------------------------------------------------------------|

 Then End With   e|-----|    Rest 8 counts After
                 b|-----|
                 g|-<2>-|
                 d|-<0>-|
                 a|-----|
                 D|-----|


1:30
e|------1----------1----------1--------------|
b|---1h3--3-----1h3--3-----1h3--3-----1h3p1--|
g|-2----------2-----------2----------2-----2-|
d|---------------------------------3---------|
a|-------------------------------------------|
D|-------------------------------------------|


1:34
 I want to lift my hands towards the sun. Show me warmth
e|------1----------1----------1--------------|
b|---1h3--3-----1h3--3-----1h3--3-----1h3p1--|
g|-2----------2-----------2----------2-----2-|   x8
d|---------------------------------3---------|
a|-------------------------------------------|
D|-------------------------------------------|

 Baby, won't you show me warmth again?
 And when I can feel with my sun hands
 I'll promise not to lose her again.
 And even if the morning never comes
 my hands are blessed to have touched the


2:03 (Let Ring)
 sun, the sun.
e|----0------0------0------0-----0------0------0-----0---|
b|---3------3------3------3-----3------3------3-----3----|
g|-0----0-0----0-0----0-0----0-----0-0-----0-----0-----0-|
d|-----------------------------3-------------3-----3-----|
a|-------------------------------------------------------|
D|-------------------------------------------------------|


2:13
 Ah-ah-ah-ah Ah-ahhh. I'll endure the night. 
 Ah-ah-ah-ah Ah-ah-ahhh. For the promise of light.
e|---------------------------------------------------------------|
b|-----------<3>------------3-<3>----------<3>------.------<3>---|
g|-2---0-3-<5>-----2p0-3-<5>------2---0-3-5--<5>----0-3/5-5--<5>-|   x2
d|---3------------------------------3----------------------------|
a|---------------------------------------------------------------|
D|---------------------------------------------------------------|

 Then End With   e|-----|    Rest for breakdown
 slide from the  b|-\1--|
 3rd and 5th     g|-\2--|
 frets to the    d|-----|
 1st and 2nd     a|-----|
                 D|-----|

2:43
 And when I can feel with my sun hands   
 I promise not to lose her again.        x4

3:14 guitars 1[left speaker] & 2[right speaker]
e|----------------------------------------------------------|  
b|----------------------------------------------------------|
g|----------------------------------------------------------|   
d|---------3---------------------------3--------------------|
a|----<3>h5---5-5---5-5---5-5-----<3>h5---5-5---5-5---5-5---|
D|-3h5------------3-----3-----3-3h5-----------3-----3-----3-|

 After second time lead into next part with...
3:30 guitar 1 [left]          guitar 2 [right]
      e|---------|             e|-----------|
      b|---------|             b|-----------|
      g|---------|             g|-----------|
      d|---------|             d|---------3-|
      a|-5-0-5-0-|             a|----<3>h5--|
      D|-0-0-0-0-|             D|-3h5-------|


3:32 guitar 1
e|-------------------------------------------------------------|
b|-------------------------------------------------------------|
g|-------------------------------------------------------------|   x2
d|----3------------3-5---------------3------------3-5----------|
a|-5----5-5\-0-3-5-----3-5------3-5----5-5\-0-3-5-----3------3-|
D|----------------------------0-------------------------3--0---|

     guitar 2
e|----------------------------------------------------------|
b|----------------------------------------------------------|
g|-----------------------------------5------------5-7/9-9~\-|
d|----3------------3-5--------3-5-7----7-7\-3-5-7-----------|
a|-5----5-5\-0-3-5-----3-5----------------------------------|
D|----------------------------------------------------------|

 *Use tremolo picking
e|-------------------------------------------------------------*repeat4x*--|
b|------------------------------------------------/8\/10\/12\13[/15\/17\]17|
g|\7-7-5/12~-9-7/12~--9-7/12~--9-7/12~--9-7/12~-9-7------------------------|
d|-------------------------------------------------------------------------|
a|-------------------------------------------------------------------------|
D|-------------------------------------------------------------------------|



3:46 (guitars 1 & 2)
e|--------------------------------|
b|--------------------------------|        
g|--------------------------------|   x2   
d|--------------------------------|        
a|--------------------------------|        
D|-5-5--0-5-5--0-5-5--0-5-5-5-5-5-|


3:55 
 Ah-ah-ah-ah Ah-ahhh. I'll endure the night. 
 Ah-ah-ah-ah Ah-ah-ahhh. For the promise of light.
e|---------------------------------------------------------------|
b|-----------<3>------------3-<3>----------<3>------.------<3>---|
g|-2---0-3-<5>-----2p0-3-<5>------2---0-3-5--<5>----0-3/5-5--<5>-|   x4
d|---3------------------------------3----------------------------|
a|---------------------------------------------------------------|
D|---------------------------------------------------------------|
            

comments powered by Disqus
↑ Back to top | Local Natives Tabs for Sun Hands. Lyrics for acoustic guitar and electric guitar. Tablatures and chords are parodies/interpretations of the original songs. You may use it for private study, scholarship, research or language learning purposes only