» » »

Local H, Toxic Tabs (ver.1)

Artists:  A B C D E F G H I J K L M N O P Q R S T U V W X Y Z # 

Toxic Tabs (ver.1)

Local H Tabs
Rating:
0/5 (0 votes)
Toxic lessons Tabs too difficult? Try these video lessons and learn fast
                Eb Tuning

Part 1				
|-------------------------------12--7--8--5-|
|-------------------------------------------|
|-------------------------------------------|
|-------------------------------------------|
|--7--7--10--7--10----7--7------------------|
|--5--5--8---5--8-----5--5------------------|

Part 2(Bass)
|-----------------------------------------------------|
|-----------------------------------------------------|
|-----------------------------------------------------|
|-----------------------------------------------------|
|-----------------------------------------------------|
|--5-5-5-5-5-5-5-5-5-5-5-5-8-8-8-8-12-12-12-12-5-5-5-5|


Part 3
|--5--5-5-5--7--15--12--7--5--5--5-5-5--7--15-12--7-5--|
|------------------------------------------------------|
|------------------------------------------------------|
|------------------------------------------------------|
|------------------------------------------------------|
|------------------------------------------------------|

Part 3 Continued
15--12--7--5--15-15--12-12--15--15--15-15-12-12--12(x12)--|
----------------------------------------------------------|
----------------------------------------------------------|
----------------------------------------------------------|
----------------------------------------------------------|
----------------------------------------------------------|

Part 4      Part 5			
|----------|-----------------------------------|
|----------|-----------------------------------|
|----------|-----------------------------------|
|----------|-----------------------------------|
|--7(x8)---|--7--10--9--8--7--10--14--13-------|
|----------|--5---8---7--6--5--8---12--11------|

Part 6	           Part 7
---------------------|-----------------------------------|
---------10-(bend)---|-----------------------------------|
---------12-(bend)---|-----------------------------------|
---------------------|--7--10--9--8--7--10--12--15-------|
---------------------|-----------------------------------|
---------------------|-----------------------------------|

Part 8 
|--12--8--7--5--7--12--12--10------|
|----------------------------------|
|----------------------------------|
|----------------------------------|
|----------------------------------|
|----------------------------------|


Part 1 x 4
Part 2 x 2 (w/Part 1 as bass plays 5(G#))
Part 2 x 1 (w/Part 3)
Part 4 x 1
Part 5 x 2 (w/2nd half of Part 1 the second time while the bass plays 11(F))
Part 2 x 1 (w/Part 1 as bass plays 5(G#), second half of Part 1 changes to 5,8,7,12
            on Eb string)
Part 2 x 1 (w/Part 1 as bass plays 5(G#), and Part 3)
Part 6 x 1 
Part 5 x 2 (w/2nd half of Part 1 while bass plays 11(F), last note is dropped
            off on guitar and bass for a slight pause)
Part 7 x 1
Part 6 x 1 (Just the bend)
Part 8 x 1
Part 7 x 1 (Only 7,10,9,8 then bass continues with 10,12 after bass finishes
one guitar plays 12,7,8,5 on the high E string while 
the other guitar plays 12,7,8,5 power chords on the low E string)
            

comments powered by Disqus
↑ Back to top | Local H Tabs for Toxic. Lyrics for acoustic guitar and electric guitar. Tablatures and chords are parodies/interpretations of the original songs. You may use it for private study, scholarship, research or language learning purposes only