>
 >
Stoney

Stoney Guitar Tabs

Local H - Stoney chords, tabs, tablatures, lyrics

Guitar lessons | Add/correct | Request | Top 50 tabs Artists:  A B C D E F G H I J K L M N O P Q R S T U V W X Y Z 0-9

Stoney Guitar Tabs – Local H

CD, Sheet music, Poster

Do you like Stoney? Share with your friends now
Tabs
Tuning: Down a half step


			  X4			      X2			X2 
Eb|--------------------------|---------------------------|-------------------------|
Bb|-------------11-----------|--------------11-----------|-------------10----------|
Gb|-------14-------14----14--|--------14-------14----14--|-------14-------12----12-|
Db|----12----12-------12-----|-----11----11-------11-----|----10----10-------10----|
Ab|-13-----------------------|--12-----------------------|--0----------------------|
Eb|--------------------------|---------------------------|-------------------------|
                                                                              
			  X2 			      X2	 		X4
Eb|--------------------------|---------------------------|-------------------------|
Bb|-------------10-----------|--------------8------------|-------------6-----------|
Gb|-------12-------12---12---|--------10------10---10----|---------9-----9----9----|
Db|-----9----9--------9------|------8----8-------8-------|-------7----7-----7------|
Ab|---0----------------------|----0----------------------|-----0-------------------|
Eb|--------------------------|---------------------------|-------------------------|

                                                        
Eb|----------------------0---|---------------------------|-------------------------|
Bb|-------------0------------|---------------------------|-------------------------|
Gb|----------5-----5---------|---------------------3-----|----------0---------0----|
Db|-------7-----------7------|------------7--------------|--------0---------0------|
Ab|----0---------------------|------5--------5-----------|------4---------4--------|
Eb|--------------------------|---6-----6--------6--------|----3---------3----------|

                                                              
Eb|--------------------------|---------------------------|
Bb|--------------------------|---------------------------|
Gb|------------7--------5----|-------------7--8--7--5----|
Db|------5--------5----------|-------5-------------------|
Ab|---6-----6--------6-------|----6-----6----------------|
Eb|--------------------------|---------------------------|
                                                                              
						      X2
Eb|--------------------------|---------------------------|
Bb|--4-4---------4-4---------|--1-1---------2-2----------|
Gb|--2-2---------2-2---------|--2-2---------2-2----------|
Db|--2-2---------2-2---------|--2-2---------2-2----------|
Ab|--0-0--0-0-0--0-0--0-0-0--|--0-0--0-0-0--0-0--0-0-0---|
Eb|--------------------------|---------------------------|
                                                                              
										X2
Eb|--------------------------------------------------------------------------------|
Bb|----1-1-1-1--1-1-1-1--2-2-2-2--2-2-2-2--4-4-4-4--4-4-4-4--4-4-4-4--4-4-4-4------|
Gb|----2-2-2-2--2-2-2-2--2-2-2-2--2-2-2-2--2-2-2-2--2-2-2-2--2-2-2-2--2-2-2-2------|
Db|----2-2-2-2--2-2-2-2--2-2-2-2--2-2-2-2--2-2-2-2--2-2-2-2--2-2-2-2--2-2-2-2------|
Ab|----0-0-0-0--0-0-0-0--0-0-0-0--0-0-0-0--0-0-0-0--0-0-0-0--0-0-0-0--0-0-0-0------|
Eb|--------------------------------------------------------------------------------|





Comments


Popular Local H tabs & chords
Everyone Alive Bass Tabs
Heavy Metal Bakesale Bass Tabs
Hands On The Bible 1 Chords
(Baby Wants To) Tame Me Tabs
5th Avenue Crazy Tabs
All Right (Oh Yeah) Tabs
Cooler Heads 1 Tabs
Everyone Alive 3 Tabs
P.J. Soles Tabs
Fine And Good Ukulele


Song lyrics



↑ Back to top | Tablatures and chords are parodies/interpretations of the original songs. You may use it for private study, scholarship, research or language learning purposes only
© 2014 AZChords.com Contact us | Privacy policy | DMCA | Add/correct tabs | Request tabs | Top 50 tabs