» » »

Local H, Smothered In Hugs Tabs (ver.1)

Artists:  A B C D E F G H I J K L M N O P Q R S T U V W X Y Z # 

Smothered In Hugs Tabs (ver.1)

Local H Tabs
 Rating:
4/5 (4 votes)
Smothered In Hugs lessons Tabs too difficult? Try these video lessons and learn fast
1
                Smothered in Hugs
                        from the SLING BLADE soundtrack
                                      Local H
These are the chords needed to play the song, its really easy.

    q  q  e  e  e  e  q  q  e  e  e  e  q  q  e  e  e  e  q  q  e  e  e  e      
E-------------------------------------------------------------------------------
B-------------------------------------------------------------------------------
G---------------------------------------4--4--4--4--4--4--4--4--4--4--4--4------
D---2--2--2--2--2--2--2--2--2--2--2--2--4--4--4--4--4--4--4--4--4--4--4--4------
A---2--2--2--2--2--2--2--2--2--2--2--2--2--2--2--2--2--2--2--2--2--2--2--2------
E---0--0--0--0--0--0--0--0--0--0--0--0------------------------------------------
                                                                                

    q  q  e  e  e  e  q  q  e  e  e  e  q  q  e  e  e  e  q  q  e  e  e  e      
E-------------------------------------------------------------------------------
B-------------------------------------------------------------------------------
G---2--2--2--2--2--2--2--2--2--2--2--2------------------------------------------
D---2--2--2--2--2--2--2--2--2--2--2--2--2--2--2--2--2--2--2--2--2--2--2--2------
A---0--0--0--0--0--0--0--0--0--0--0--0--2--2--2--2--2--2--2--2--2--2--2--2------
E---------------------------------------0--0--0--0--0--0--0--0--0--0--0--0------
                                                                                



==                           TABLATURE EXPLANATION                            ==

----------                ----------                ----t---
----5h8--- Hammeron       ----(8)--- Ghost          ----6--- Tap
----------                ---------- Note           --------
----5p8--- Pulloff        ----------                --------

----------                ----------                -----p--
----5/8--- Slide Up       -----x---- Dead           -----7-- Pop
----------                ---------- Note           --s-----
----5\8--- Slide Down     ----------                --5----- Slap 

----------                ||------|| Repeat         --------
----5~~~-- Vibrato        ||*----*||                ---5^--- Bend
----------                ||*----*||                --------
----------                ||------||                --------

----------                ----------                --------
-4:------- Time           ----------                --------
-4:------- Signature      ----------                --------
----------                ----------                --------

Rhythm:
  w = whole note            W = dotted whole
  h = half note             H = dotted half
  q = quarter note          Q = dotted quarter
  e = eighth note           E = dotted eighth
  s = sixteenth note        S = dotted sixteenth
  t = 32nd note             T = dotted 32nd
  x = 64th note             X = dotted 64th
  ^ = triplet

==                   Created with BUCKET O' TAB for Windows                   ==
            
Submit corrections

comments powered by Disqus
↑ Back to top | Local H Tabs for Smothered In Hugs. Lyrics for acoustic guitar and electric guitar. 1 Tablatures and chords are parodies/interpretations of the original songs. You may use it for private study, scholarship, research or language learning purposes only