» » »

Local H, P.J. Soles Tabs (ver.1)

Artists:  A B C D E F G H I J K L M N O P Q R S T U V W X Y Z # 

P.J. Soles Tabs (ver.1)

Local H Tabs
 Rating:
4/5 (4 votes)
P.J. Soles lessons Tabs too difficult? Try these video lessons and learn fast
1
                watch the acoustic session on y*u t*be
acoustic version

fig.1
------------------------------------------------------------2--4---2---0----|
----5---5-7---9-9-9--9-------7-5-7-9---5-5-5--5-------5---5-----------------|
--7---7-------6-6-6-6-6--0-5-5-5-5-5---4-4-4-4-4--0-3-3-3--------3---3---3--|
---------------------------------------5-5-5--------------------------------|


--------------------------------------------|
--------------------------------------------|
--------------------------------------------| repeat serveral times
--2---2--0---0-4-0-4-5-7-7-7-7-7------------|
----3------------------5-5-5-5-5--5-5-6-7---|
--------------------------------------------|

I think of P.J. Soles
And wonder where you are
I'll never see you anymore


Where do you think they go?
All the Fallen Stars
Heaven doesnt know you like I do

----------------------|
----------------------|
--9----8----7----6----|
--9-..-8-..-7-..-6-..-|
--7----6----5----4----|
----------------------|

see you- bleed through
the gauzey haze I sink into

----------------------|
----------------------|
--5-----7-------------|
--5-..--7-..----------|
--3-----5-------------|
----------------------|

I think of you like P.J. Soles

I was your biggest fan
You seemed to understand
They'll never see you like I do


I guess it's like they said
That it was all just built up in my head
But you're still so real to me (in the acoustic version scott plays this part like fig.1)


If fine- this time
To me it makes no nevermind
But you know I keep you close
Yearbook- it took
Just one thousand tearstained looks

I think of you like P.J. Soles

  A?             C
--0--------------0-------------------|
--0--------------1-------------------|
--2--------------0-------------------|
--2-....---------2-------------------|
--0--------------3-------------------|
-------------------------------------|

         A?
And if I do think of you
          C
It's only in the darkest place inside of me...

-----------------------0-----------------|
--0------0------0------0-----------------|
--9------4------7------2-----------------|
--9-...--4--...-7--..--2--...------------|
--7------2------5------0-----------------|
-----------------------------------------|

            C                              D
You should know- I think of you like P.J. Soles


See you- bleed through
The gauzey haze I sink into
Phone call- f**k all
You'r just one part of my free fall
This part of me will never close


And when I do think of you
It's only in the darkest place inside of me
You should know- I think of you like P.J. Soles



Scotty rulz
            
Submit corrections

comments powered by Disqus
↑ Back to top | Local H Tabs for P.J. Soles. Lyrics for acoustic guitar and electric guitar. 1 Tablatures and chords are parodies/interpretations of the original songs. You may use it for private study, scholarship, research or language learning purposes only