» » »

No Fun Tabs (ver.1)

Artists:  A B C D E F G H I J K L M N O P Q R S T U V W X Y Z # 

No Fun Tabs (ver.1)

Local H
Rating:
0/5 (0 votes)

Hard to play? Try these video lessons and learn fast.
                Local H
The No Fun E.P.
dropped d and a half step down: C#G#C#F#BbEb

Intro:
-----------------------------
-----------------------------
--77-7\5---------------------
--77-7\5-33-3333-------------
--55-5\3-33-3333-------------
---------33-3333-------------4x then

Intro Part 2:
-----------------------------
-----------------------------
--77-7-----------------------
--77-7-3030-3h530------------
--55-5-3030-3h530------------
--00---3030-3h530------------4x end on a D.

Verse:"depression is..."
-----------------------------
----------6666666-8888888----
--7777777-5555555-7777777----
--7777777-3333333-5555555----
--5555555-3333333-5555555----
----------3333333-5555555----2x

Chorus:"and it's no fun..."
---------------------------------------
---------------------------------------
--77777777777-55555555555-77777777777--
--55555555555-33333333333-77777777777--
--55555555555-33333333333-77777777777--
--55555555555-33333333333-77777777777--1x


"i think i'm going crazy..."
----------------------------
------------------88888888--
--7777777-5555555-77777777--
--7777777-5555555-55555555--
--5555555-3333333-55555555--
------------------55555555--

"it's not ***ing fun..." (play intro part 2 riff during this part.)
Verse Riff again
Chorus 
Intro Part 2 then

Bridge:
-----------------------
-----------------------
--7\5/7xxx-5-----5--5--
--x\x/xxxx-x-3-5-x--x--
--5\3/5xxx-3-x-x-3--3--
-------------3-5------- end this on an F.

chorus
guitar drops out and then comes back in with this:
---------------
---------------
--777777777777-
--000000000000-
---------------
---------------

solo is the same few notes over again with some sort of effect.
corrections welcome.
            
Hard to play? Try these video lessons and learn fast. | Correct




comments powered by Disqus
↑ Back to top | Tablatures and chords are parodies/interpretations of the original songs. You may use it for private study, scholarship, research or language learning purposes only