» » »

Mellowed Tabs (ver.1)

Artists:  A B C D E F G H I J K L M N O P Q R S T U V W X Y Z # 

Mellowed Tabs (ver.1)

Local H
Rating:
0/5 (0 votes)

Hard to play? Try these video lessons and learn fast.
                mellowed - standard tuning

this is how i play it mostly im sure the tuning is off 
but if your playing it with the big muff pi 
it sounds pretty accurate in my opinion.


------------------------------------------
------------------------------------------
------------------------------------------
------------------------------------------
-----2-----2------------------------------
-0-3---0-2--------------------------------(intro)

------------------------------------------
------------------------------------------
-------------------55555555---------------
-------------------33333333---------------
-55555555-33333333----------55555555------
-33333333-11111111----------33333333------(palm mute)

-5555555555555555------------------5555555555555555--------------------
-3333333333333333-3333333333333333-3333333333333333--5-5-5555555555----
------------------1111111111111111-------------------3-3-3333333333----

-------------------0----------------------------------------------------
--------------------0---------------------------------------------------
---------------------0--------------------------------------------------
----------------------0-------------------------------------------------
-3-3-33333333--2-2------------------------------------------------------
-1-1-11111111--0-2------------------------------------------------------(breakdown)

------------------------------------------------
------------------------------------------------
------------------------------------------------
------------------------------------------------
5-5-5-x-3-3-3-x-2-2-2---------------------------
3-3-3-x-1-1-1-x-0-0-0---------------------------(back to intro)
            
Hard to play? Try these video lessons and learn fast. | Correct




comments powered by Disqus
↑ Back to top | Tablatures and chords are parodies/interpretations of the original songs. You may use it for private study, scholarship, research or language learning purposes only