» » »

Local H, I Saw What You Did And I Know Who You Ar Tabs (ver.1)

Artists:  A B C D E F G H I J K L M N O P Q R S T U V W X Y Z # 

I Saw What You Did And I Know Who You Ar Tabs (ver.1)

Local H Tabs
 Rating:
4/5 (4 votes)
I Saw What You Did And I Know Who You Ar lessons Tabs too difficult? Try these video lessons and learn fast
1
                SONG I SAW WHAT YOU DID AND I KNOW WHO YOU ARE

Intro:
--------------------------
--------------------------
-4-4-4--------------------
-4-4-4---3-3-3------------
-2-2-2---3-3-3------------
---------1-1-1----------- X 12
Prechorus:
-----------------------------------------------------------
-----------------------------------------------------------
-4-4-4-4-4-4-4-4-4-4-4-4-4-4-4-----------------------------
-4-4-4-4-4-4-4-4-4-4-4-4-4-4-4--3-3-3-3-3-3-3-3-3-3-3-3-3-3
-2-2-2-2-2-2-2-2-2-2-2-2-2-2-2--3-3-3-3-3-3-3-3-3-3-3-3-3-3
--------------------------------1-1-1-1-1-1-1-1-1-1-1-1-1-1 X 2

Chorus:  ( Maybe...Wanna play!!!! ) X 2
7-7-7-7-7-7-7-7-7-7-7------------------------4-4-4-4-4-4-4-4-4-4-4-4-----------------
7-7-7-7-7-7-7-7-7-7-7-4-4-4-4-4-4-4-4-4-4-4--4-4-4-4-4-4-4-4-4-4-4-4-3-3-3-3-3-3-3-3
5-5-5-5-5-5-5-5-5-5-5-4-4-4-4-4-4-4-4-4-4-4--2-2-2-2-2-2-2-2-2-2-2-2-3-3-3-3-3-3-3-3
----------------------2-2-2-2-2-2-2-2-2-2-2--------------------------1-1-1-1-1-1-1-1
Then back to Intro: X8
Then prechorus: X2
Chorus: X 2

Bridge: ( Maybe the life I've left...is coming back for me....)
-------------------------
-------------------------
-------------5-----------
-4-4-5-4---2-5-----------
-4-4-5-4---2-3-----------
-2-2-3-2---0-------------  X12

---------------------------
---------------------------
---------------------------
4-4-4-4-4-4-7-7-7-7-7-7----
4-4-4-4-4-4-7-7-7-7-7-7----
2-2-2-2-2-2-5-5-5-5-5-5----X 3

---------------------------
---------------------------
---------------------------
5-----6-----3--------------
5-----6-----3--------------
3-----4-----1--------------

Back to Intro: X 8 then.......
--------------------------------------------------------
--------------------------------------------------------
44444444444444444444444444444444------------------------
44444444444444444444444444444444------------------------
22222222222222222222222222222222------------------------  ( build up for chorus )

Then Chorus: X 2 
Thats it....easy and fun, I also did the tabs for the bass too..
Enjoy!
            
Submit corrections

comments powered by Disqus
↑ Back to top | Local H Tabs for I Saw What You Did And I Know Who You Ar. Lyrics for acoustic guitar and electric guitar. 1 Tablatures and chords are parodies/interpretations of the original songs. You may use it for private study, scholarship, research or language learning purposes only