» » »

Local H, I Know What You Did And I Know Who You A Bass tabs (ver.1)

Artists:  A B C D E F G H I J K L M N O P Q R S T U V W X Y Z # 

I Know What You Did And I Know Who You A Bass tabs (ver.1)

Local H Tabs
 Rating:
4/5 (4 votes)
I Know What You Did And I Know Who You A lessons Tabs too difficult? Try these video lessons and learn fast
                Intro     First Guitar for 4 counts then bass and drums come in....
----------------------------------------
----------------------------------------
-2-0-2----------------------------------
-------1-1-1---------------------------- X 8

Prechorus:
----------------------------------------
----------------------------------------
-22222222222222222----------------------X 2
------------------11111111111111111-----  <----Ones not elevens )

Chorus:  ( Maybe...Wanna play!!! )
---------------------------------------------------
--------------------------4------------------------
-55555555555555-------234---43022222222222---------
----------------222222-------------------111111111 x 2 <--- still ones

Back to Intro :
---------------------------
---------------------------
-2-0-2---------------------
-------1-1-1--------------- X 8

Prechorus:
--------------------------------------------
--------------------------------------------
-22222222222222222--------------------------
-------------------1111111111111111111------ X 2

Chorus :
------------------------------------------------------
------------------------4-----------------------------
-55555555555--------234---43022222222222--------------
-------------222222---------------------1111111111111- X 2

Bridge:  ( maybe the life i've left, is coming back for me )
-------------------
-------------------   
--------0-3--------
-2232-------------- X 12   

-------------------
-------------------
-------------------
-22222225555555---- X 3

--------------------
-------------------- 
--------------------
-3---4-----1--------
THen guitar does inro again for X8 then bass...
-------------------------------------
-------------------------------------
-222222222222222222222222222222222---
-------------------------------------
Chorus:
----------------------------------------------------------
---------------------4-------------------------------------
-55555555555-----234---4302222222222----------------------
------------222222-------------------11111111111111------- X2

There ya go, it's a pretty cool song and not hard at all...
hope you enjoy it
            
Submit corrections

comments powered by Disqus
↑ Back to top | Local H Bass for I Know What You Did And I Know Who You A. Lyrics for acoustic guitar and electric guitar. Tablatures and chords are parodies/interpretations of the original songs. You may use it for private study, scholarship, research or language learning purposes only