» » »

Local H, High-Flying Mf Tabs (ver.1)

Artists:  A B C D E F G H I J K L M N O P Q R S T U V W X Y Z # 

High-Flying Mf Tabs (ver.1)

Local H Tabs
 Rating:
4/5 (4 votes)
High-Flying Mf lessons Tabs too difficult? Try these video lessons and learn fast
                #####Drop-D Tuning#####
Lots of Distortion
Intro
E------------------------------------|
B-------Palm-Muted-------------------|
G------------------------------------|
D-55-33-00-33-55-5-5-3-0-5-33-0-3-55-|
A-55-33-00-33-55-5-5-3-0-5-33-0-3-55-|
D-55-33-00-33-55-5-5-3-0-5-33-0-3-55-|
Chorus part
E---------------------|--------------|-----------------------|
B---------------------|--------------|-----------------------|
G---------------------|--------------|-----------------------|
D-55-33-00-33-55-33-0-|--------------|-3333...-0000...-------|
A-55-33-00-33-55-33-0-|-444444......-|-3333...-0000...-------|
D-55-33-00-33-55-33-0-|--------------|-3333...-0000...-------|

E----------------------|----------------------|
B----------------------|----------------------|
G--------------6666----|----------------------|
D--------------6666----|-55-33-00-33----5-3-0-|
A-4444444...---4444...-|-55-33-00-33----5-3-0-|
D----------------------|-55-33-00-33...-5-3-0-|
            
Submit corrections

comments powered by Disqus
↑ Back to top | Local H Tabs for High-Flying Mf. Lyrics for acoustic guitar and electric guitar. Tablatures and chords are parodies/interpretations of the original songs. You may use it for private study, scholarship, research or language learning purposes only