» » »

Heavy Metal Bakesale Tabs (ver.2)

Artists:  A B C D E F G H I J K L M N O P Q R S T U V W X Y Z # 

Heavy Metal Bakesale Tabs (ver.2)

Local H
Rating:
4/5 (1 vote)

Hard to play? Try these video lessons and learn fast.
                
Tuning: Drop Db


Intro:

   0:00-0:05
Eb:-------------|
Bb:-------------|
Gb:-------------|          X 4 with effect
Db:-------------|
Ab:-------------|
Db:-0-0-1p0-1-3-|


   0:05-0:15
Eb:-------------|
Bb:-------------|
Gb:-------------|          X 8
Db:-------------|
Ab:-------------|
Db:-0-0-1p0-1-3-|

                         at the same time a 2nd guitar plays this:
   0:15-0:24
Eb:-------------|            Eb:-----|
Bb:-------------|            Bb:-----|
Gb:-------------|    X 7     Gb:-----|
Db:-------------|            Db:-0-0-|
Ab:-------------|            Ab:-0-0-|
Db:-0-0-1p0-1-3-|            Db:-0-0-|

   0:24-0:27
Eb:-------------|
Bb:-------------|
Gb:-33----55-88-|
Db:-33-33-55-88-|
Ab:-11-33-33-66-|
Db:----33-------|


   0:27-0:46                on the 5th time, 2nd guitar does this slide:
Eb:-------------|         Eb:----|
Bb:-------------|         Bb:----|
Gb:-------------|  X 15   Gb:-/7-|
Db:-------------|         Db:-/7-|
Ab:-5p0x5p0x5h6-|         Ab:-/5-|
Db:-------------|         Db:----|

  0:46-0:0:47
Eb:--------|
Bb:--------|
Gb:--------|
Db:-33--33-|
Ab:-33--33-|
Db:-33--33-|

  0:47-0:56
Eb:-------------|
Bb:-------------|
Gb:-------------|   X 7
Db:-777x777x777-|
Ab:-5p0x5p0x5h6-|
Db:-------------|

  0:56-0:59
Eb:-------------|
Bb:-------------|
Gb:-33----55-88-|
Db:-33-33-55-88-|
Ab:-11-33-33-66-|
Db:----33-------|

   0:59-1:07
Eb:-------------|            Eb:-----|
Bb:-------------|            Bb:-----|
Gb:-------------|    X 7     Gb:-----|
Db:-------------|            Db:-0-0-|
Ab:-------------|            Ab:-0-0-|
Db:-0-0-1p0-1-3-|            Db:-0-0-|

  1:08-1:10
Eb:-------------|
Bb:-------------|
Gb:-33----55-88-|
Db:-33-33-55-88-|
Ab:-11-33-33-66-|
Db:----33-------|

  1:10-1:24               There are a few D slides here
Eb:-------------|          Eb:----|
Bb:-------------|          Bb:----|
Gb:-------------|  X 11    Gb:-/7-|
Db:-------------|          Db:-/7-|
Ab:-5p0x5p0x5h6-|          Ab:-/5-|
Db:-------------|          Db:----|

  1:24-1:26
Eb:--------|
Bb:--------|
Gb:--------|
Db:-33--33-|
Ab:-33--33-|
Db:-33--33-|

  1:26-1:34
Eb:-------------|
Bb:-------------|
Gb:-------------|   X 7
Db:-777x777x777-|
Ab:-5p0x5p0x5h6-|
Db:-------------|

  1:34-1:37
Eb:----------------|
Bb:----------------|
Gb:----------------|
Db:-33--33-33-33-3-|
Ab:-33--33-33-33-3-|
Db:-33--33-33-33-3-|

  1:37-1:42
Eb:--------------------------------|
Bb:--------------------------------|
Gb:--------------------------------|
Db:--------------------------------|
Ab:--------------------------------|
Db:-000-333-000-555-000-333-000-5b-|

  1:42-2:07
Eb:-----------------|
Bb:-----------------|         Gets faster
Gb:-----------------|         near the end
Db:-000-333-000-555-|  X 10
Ab:-000-333-000-555-|
Db:-000-333-000-555-|

End On:

  2:07
Eb:----|
Bb:----|
Gb:----|
Db:-0r-|
Ab:-0r-|
Db:-0r-|
            
Hard to play? Try these video lessons and learn fast. | Correct




comments powered by Disqus
↑ Back to top | Tablatures and chords are parodies/interpretations of the original songs. You may use it for private study, scholarship, research or language learning purposes only