» » »

Heavy Metal Bakesale Bass tabs (ver.1)

Artists:  A B C D E F G H I J K L M N O P Q R S T U V W X Y Z # 

Heavy Metal Bakesale Bass tabs (ver.1)

Local H
Rating:
0/5 (0 votes)

Tabs too difficult? Try these video lessons and learn fast.
                Intro/Verse
G-------------------------------------------------------------------------|
D-------------------------------------------------------------------------|
A-------------------------------------------------------------------------|
E-9-9-9-9-9-10------------------------------------------------------------|


0:25/0:57/1:09
G-------------------------------------------------------------------------|
D-------------------------------------------------------------------------|
A--9-9-9-7-7-7-12-12-12-5-5-5---------------------------------------------|
E-------------------------------------------------------------------------|

0:46/1:25/1:35
G-------------------------------------------------------------------------|
D-------------------------------------------------------------------------|
A--5-5-5-5-5-5------------------------------------------------------------|
E-------------------------------------------------------------------------|

Outro 1:42
G-------------------------------------------------------------------------|
D-------------------------------------------------------------------------|
A-------------------------------------------------------------------------|
E--9-9-9-9-13-13-13-13-9-9-9-9-14-14-14-14--------------------------------|
            
Tabs too difficult? Try these video lessons and learn fast.


comments powered by Disqus
↑ Back to top | Tablatures and chords are parodies/interpretations of the original songs. You may use it for private study, scholarship, research or language learning purposes only