» » »

Local H, Everyone Alive Tabs (ver.3)

Artists:  A B C D E F G H I J K L M N O P Q R S T U V W X Y Z # 

Everyone Alive Tabs (ver.3)

Local H Tabs
Rating:
0/5 (0 votes)
Everyone Alive lessons Tabs too difficult? Try these video lessons and learn fast
                Local H- Everyone Alive

Tuning- D Standard (DGCFAD) I’m not sure if that’s how Scott plays it, but it sounds good.

KEY:
X - MUTE
/ - SLIDE
. - PALM MUTE
A - 10TH FRET
B - 11TH FRET
C - 12TH FRET
D - 13TH FRET
()- GHOST NOTE
R - REST

INTRO 4X
-------------------------------|
-------------------------------|
-------------------------------|
-6--6-X-3--3-8-X-8-X-6--66-3/6-|
-6--6-X-3--3-8-X-8-X-6--66-3/6-|
-4--4-X-1--1-6-X-6-X-4--44-1/4-|

DRUMS START

VERSE 4X
-----------------------------|
-----------------------------|
-----------------------------|
-6--6-X-33-3-8-X-8-X-6--66-X-|
-6--6-X-33-3-8-X-8-X-6--66-X-|
-4--4-X-11-1-6-X-6-X-4--44-X-|

PRECHORUS (WHOLE THING 2X)
 _ _ _ _ _ _ _ _ _ _ _\_ _ _ _ _ _ _ _ _ _ _ _ _ _ _ _
/                                                     \
PRECHORUS PART A 2X               PRECHORUS PART B 2X
------------------------------- -----------------------|
------------------------------- -----------------------|
------------------------------- -----------------------|
-3--3-33--3-3-3-3-3-3-3-3-3-33- -8-8-8-8/C/D-D-D-D/(8)-|
-3--3-33--3-3-3-3-3-3-3-3-3-33- -8-8-8-8/C/D-D-D-D/(8)-|
-1--1-11--1-1-1-1-1-1-1-1-1-11- -6-6-6-6/A/B-B-B-B/(6)-|
    .     .   .   . .   . . ..

BRIDGE 1X
-------------------------------------------------------------------|
-------------------------------------------------------------------|
-------------------------------------------------------------------|
-6-6-6-6//3-3-3-3//6-6-6-6//3-3-3-3//6-6-6-6//3-3-3-3//6-6-6-6//3r-|
-6-6-6-6//3-3-3-3//6-6-6-6//3-3-3-3//6-6-6-6//3-3-3-3//6-6-6-6//3r-|
-4-4-4-4//1-1-1-1//4-4-4-4//1-1-1-1//4-4-4-4//1-1-1-1//4-4-4-4//1r-|
 . .   .  . .   .  . .   .  . .   .  . .   .  . .   .  . .   .

CHORUS 2X
-------------------------------|
-------------------------------|
-------------------------------|
-3-----//6-----//8-----//B-----|
-3-16X-//6-16x-//8-16x-//B-16x-|
-1-----//4-----//6-----//9-----|

Well, that’s everything. It’s hard for me to put it all in order, because there’s a part
Scott stops playing guitar and it’s just drums. Plus I’m lazy. So yeah, you figure it
I’m not going to say “THIS IS ALL 100% PERFECT” like most people do, cause I did all 
I talk too much. Enjoy! Peace! - Patrick
            
Submit corrections

comments powered by Disqus
↑ Back to top | Local H Tabs for Everyone Alive. Lyrics for acoustic guitar and electric guitar. Tablatures and chords are parodies/interpretations of the original songs. You may use it for private study, scholarship, research or language learning purposes only