>
 >
Creature Comforted

Creature Comforted Guitar Tabs

Local H - Creature Comforted chords, tabs, tablatures, lyrics

Guitar lessons | Add/correct | Request | Top 50 tabs Artists:  A B C D E F G H I J K L M N O P Q R S T U V W X Y Z 0-9

Creature Comforted Guitar Tabs – Local H

CD, Sheet music, Poster

Do you like Creature Comforted? Share with your friends now
Tabs
Local H - Creature Comforted

Tuning: Drop Db (Db, Ab, Db, Gb, Bb, eb)
Heavy distortion


Intro x8
eB-------------------------------------------------|
Bb-----3---3--5---5-6------------------------------|
Gb-----5b7-7--7b9-9-8b10---------------------------|
Db-------------------------------------------------|
Ab-0-0---------------------------------------------|
Db-0-0---------------------------------------------|

Verse x4
       (x14)
eB-------------------------------------------------|
Bb-----15------------------------------------------|
Gb-----17b19---------------------------------------|
Db-------------------------------------------------|
Ab-0-0---------3---0-3--3-3-3--8888888-10----------|
Db-0-0---------3---0-3--3-3-3--8888888-10----------|

On the third time, play

       (x7)      (x7)
Bb-----15--------18---------------------------------|
Gb-----17b19-----17b19------------------------------|

Bridge
eB-------------------------------------------------|
Bb-----3---3--5---5-6------------------------------|
Gb-----5b7-7--7b9-9-8b10---------------------------|
Db-------------------------(15)(15)(15)-0----------|
Ab-0-0---------------------(15)(15)(15)-0----------|
Db-0-0---------------------(15)(15)(15)-0----------|
                            *   *   *

Chorus
(Listen for strumming)

            ("Creature Comforted")
eB-------------------------------------------------|
Bb-------------------------------------------------|
Gb--------------6-6-6-6-5-5-3----------------------|
Db--0-----3-----6-6-6-6-5-5-3--0-----10-----8------|
Ab--0-----3--------------------0-x18-10-x8--8-x8---|
Db--0-----3--------------------0-----10-----8------|

eB--------------------------------------------------------|
Bb--------------------------------------------------------|
Gb--------------6-6-6-6-5-5-3-----------------------------|
Db--0-----3-----6-6-6-6-5-5-3--0-----10-----8-----10------|
Ab--0-x12-3-x10----------------0-x18-10-x8--8-x16-10-x16--|
Db--0-----3--------------------0-----10-----8-----10------|


Intro x4
Verse x4
Bridge
Chorus x2

Riff / Breakdown
      (x6)             (x2)
eB------------|-----------------|----|
Bb-----15-----|---------15------|----|
Gb-----17b19--|---------17b19---|----|
Db------------|x8---------------|x8--|
Ab-0-0--------|-----0-0---------|----|
Db-0-0--------|-----0-0---------|----|

                 (2 guitars here)
eB---------|------------|---------------|
Bb---15----|-----15-----|---------------|
Gb---17b19-|-----17b19--|---------------|
Db---------|x8----------|x16------------|
Ab-0-------|-----0------|---------------|
Db-0-------|-----0------|---------------|

eB--------------------------------------|
Bb-----3---3--5---5-6-------------------|
Gb-----5b7-7--7b9-9-8b10----------------|
Db--------------------------------------|
Ab-0-0--------------------0-0-0-0-------|
Db-0-0--------------------0-0-0-0-------|
                          * * *


Outro - Intro x3

eB--------------------------------------|
Bb-----15----17----18-------------------|
Gb-----17b19-19b21-20b22----------------|
Db--------------------------------------|
Ab-0-0----------------------------------|
Db-0-0----------------------------------|





Comments


Popular Local H tabs & chords
Born To Be Down Bass Tabs
Bound For The Floor Drum Tabs
5th Avenue Crazy Tabs
Bound For The Floor 4 Tabs
Everyone Alive Tabs
Everyone Alive 1 Tabs
Freeze Dryed Flies (Intro) Tabs
Half Life Tabs
Hands On The Bible Tabs
Heavy Metal Bakesale Tabs


Song lyrics



↑ Back to top | Tablatures and chords are parodies/interpretations of the original songs. You may use it for private study, scholarship, research or language learning purposes only
© 2014 AZChords.com Contact us | Privacy policy | DMCA | Add/correct tabs | Request tabs | Top 50 tabs