» » »

Local H, Copasetic Tabs (ver.2)

Artists:  A B C D E F G H I J K L M N O P Q R S T U V W X Y Z # 

Copasetic Tabs (ver.2)

Local H Tabs
 Rating:
3.4/5 (5 votes)
Copasetic lessons Tabs too difficult? Try these video lessons and learn fast
1
                Local H- Copasetic (Not "So Pathetic")

Tuning is a Half-Step Down


INTRO/VERSES/OUTRO (Clean):
                                                     (this is where chorus
picks up on the last riff repeat)                    ^
e|------------|-----------------|-----------|--------|----------|
B|------------|-----------------|-----------|--------|----------|
G|------------|-----------------|-----------|--------|----------|
D|--8--8--8-8-|-8--6-8--8-8-8-6-|-8--8--8-8-|-8--6-8-|-8-9-8-6--|
A|--6--6--6-6-|-6--6-6--6-6-6-6-|-6--6--6-6-|-6--6-6-|-6-6-6-6--|
E|------------|-----------------|-----------|--------|----------|

It kicks into distortion at the beginning of the the chorus, and goes back clean at the verse.


CHORUSES:

e|---------|--------------------------------------------------|
B|---------|--------------------------------------------------|
G|---------|--------------------------------------------------|
D|---------|------------------------------------------6--6-6--|
A|---------|6--6--6-6-6--9--9-9--9-9-9---4--4--4-4-4--4--4-4--|
E|-6-7-6-4-|4--4--4-4-4--7--7-7--7-7-7-0-2--2--2-2-2--4--4-4--|


SOLO:
(Solo lasts all the the way through the last chorus until the outro- it's kinda hard to 
it during the chorus though)

e|----------------------------------|
B|----------------------------------|
G|--4--4-2-4b5r-2--4-4-4-2-4b5r-4-2-|
D|----------------------------------|
A|----------------------------------|
E|----------------------------------|

Remember- all verses, the intro/outro, and choruses in this song are the same. Also, 
listening to the chorus of the song, you can hardly hear the guitar- what you hear most is 
bass, which for some reason is actually more complex. Anyways, I hope this tab helps.

The whole song goes in this order:

Intro/Verse I: 6X
Chorus I: 2X
Verse II: 4X
Chorus II: 6X
Solo: 16X (Last 8 times are though the last chorus)
Chorus III: 4X
Outro: 2X
(The outro cuts off at the end the same way the verse does)


Well, that's it- Thank you for reading,

Goose
            
Submit corrections

comments powered by Disqus
↑ Back to top | Local H Tabs for Copasetic. Lyrics for acoustic guitar and electric guitar. 1 Tablatures and chords are parodies/interpretations of the original songs. You may use it for private study, scholarship, research or language learning purposes only