» » »

Local H, Cool Magnet Bass tabs (ver.1)

Artists:  A B C D E F G H I J K L M N O P Q R S T U V W X Y Z # 

Cool Magnet Bass tabs (ver.1)

Local H Tabs
 Rating:
4/5 (4 votes)
Cool Magnet lessons Tabs too difficult? Try these video lessons and learn fast
1
                Album:Pack Up The Cats

b=bend

I Couldn't Quite Pick Out If There Was
More of An Intro Here But The Rest of 
The Song Is In My Ears 100% Correct. 
Please Rate And/Or Comment. Have Fun! 


0:21
E |---------|
B |---------|
F#|---------|
C#|-5-3-3-5-|

0:23
E |--------------------------|x4
B |--------------------------|
F#|-----------7-5-5----------|
C#|-0-0-3-5-7-------5-3-3-5b-|

0:38
E |-------------------------------------------------------------------|
B |-------------------------------------------------------------------|
F#|-------------------------------------------------------------------|
C#|-0--5-3-3-5b-0-----5-3-3-5b-0-------5-3---------5b-0------5-3-3-5b-|
    Standing At...                     Cigarettes..

0:53
E |--------------------------|x4
B |--------------------------|
F#|-----------7-5-5----------|
C#|-0-0-3-5-7-------5-3-3-5b-|

1:07
E |----------------------------------------------|
B |----------------------------------------------|
F#|----------------------------------------------|
C#|-5-3-3-5b----------5-3-3-5b----------5-3-3-5b-|
    My Minds...       Quite Amused...   Just Confused

1:12
E |---------------------------------------------------|
B |---------------------------------------------------|
F#|---------------------------------------------------|
C#|-3-0-0-3-0-0-3-3-3-3-3-0-0-3-0-0-3-0-0-3-3-3-3-3-0-|

1:20
E |--------------------------------------------------|
B |--------------------------------------------------|
F#|---------------7----7---------5----5--------------|
C#|-0-0-0-0-0-0--------------------------5-5-5-5-5-5-|
    Yeah!...      Come So...     Easily...

1:25
E |-----------------------------------------------------------------|
B |-----------------------------------------------------------------|
F#|-----------------------------------------------------------------|
C#|-3-3-3-3-3-3-3-3-3-3-3-3-3-3-3-1-1-1-1-1-1-1-1-1-0-0-0-0-0-0-0-0-|
         Everything You Want...   Attracted To ...  Cool Magnet...

1:35
E |---------------------------------------------------|
B |---------------------------------------------------|
F#|---------------------------------------------------|
C#|-3-0-0-3-0-0-3-3-3-3-3-0-0-3-0-0-3-0-0-3-3-3-3-3-0-|

1:42
E |-------------------------------------------------------------------|
B |-------------------------------------------------------------------|
F#|-------------------------------------------------------------------|
C#|-0--5-3-3-5b-0-----5-3-3-5b-0-------5-3---------5b-0------5-3-3-5b-|
    Confusion...      Illusions...     To Tell...  I Think...

1:58
E |--------------------------|x4
B |--------------------------|
F#|-----------7-5-5----------|
C#|-0-0-3-5-7-------5-3-3-5b-|

2:12
E |------------------------------------|
B |------------------------------------|
F#|------------------------------------|
C#|-5-3-3-5b-----5-3-3-5b-----5-3-3-5b-|
    Dont Get...  To Exact...  Forget The...

2:17
E |-------------------------------------------------|
B |-------------------------------------------------|
F#|-------------------------------------------------|
C#|-3-0-0-3-0-0-3-3-3-3-3-0-0-3-0-0-3-0-0-3-3-3-3-3-| 

2:24
E |--------------------------------------------------|
B |--------------------------------------------------|
F#|---------------7----7---------5----5--------------|
C#|-0-0-0-0-0-0--------------------------5-5-5-5-5-5-|
    Yeah!...      Come So...     Easily...

2:30
E |-----------------------------------------------------------------|
B |-----------------------------------------------------------------|
F#|-----------------------------------------------------------------|
C#|-3-3-3-3-3-3-3-3-3-3-3-3-3-3-3-1-1-1-1-1-1-1-1-1-0-0-0-0-0-0-0-0-|
         Everything You Want...   Attracted To ...  Cool Magnet...

2:40
E |-------------------------------------------------|
B |-------------------------------------------------|
F#|-------------------------------------------------|
C#|-3-0-0-3-0-0-3-3-3-3-3-0-0-3-0-0-3-0-0-1-1-1-1-1-| 

2:48
E |---------------------------------------|
B |---------------------------------------|
F#|---------------------------------------|
C#|-3-0-0-3-0-0-3-3-3-3-3-0-0-3-0-0-3-0-0-|

2:53
E |-------------------------------------|
B |-------------------------------------|
F#|-------------------------------------|
C#|1-1-1-1-1--1-1-1-1-1--1-1-1-1-1-3b-0-| 

3:01
E |------------|x6
B |------------|
F#|------------|
C#|-5-3-3-5b-0-|

3:22
E |--------------------------| Until The End of The Song
B |--------------------------|
F#|-----------7-5-5----------|
C#|-0-0-3-5-7-------5-3-3-5b-|
            
Submit corrections

comments powered by Disqus
↑ Back to top | Local H Bass for Cool Magnet. Lyrics for acoustic guitar and electric guitar. 1 Tablatures and chords are parodies/interpretations of the original songs. You may use it for private study, scholarship, research or language learning purposes only