» » »

Local H, Buffalo Trace Tabs (ver.1)

Artists:  A B C D E F G H I J K L M N O P Q R S T U V W X Y Z # 

Buffalo Trace Tabs (ver.1)

Local H Tabs
 Rating:
4.2/5 (5 votes)
Buffalo Trace lessons Tabs too difficult? Try these video lessons and learn fast
1
                (Intro)
First Tab , I dont have the whole song down just this section that is played throughout 
song.

Tuning : Eb Ab Db Gb Bb Eb

Eb|------------------------------------------------|
Ab|------------------------------------------------|
Db|------------------------------------------------|
Gb|-----9-9-------9-9----5--9-9--------------------|
Bb|-----7-7----5--7-7-5-7---7-7----5--5h7p5--------|
Eb|-----0-0-5-7---0-0-------0-0-5-7---------7-5-3--|

Eb|------------------------------------------------|
Ab|------------------------------------------------|
Db|------------------------------------------------|
Gb|-----9-9-------9-9----5--9-9--------------5h7p5-|
Bb|-----7-7----5--7-7-5-7---7-7----5--5h7p5--------|
Eb|-----0-0-5-7---0-0-------0-0-5-7----------------|
            
Submit corrections

comments powered by Disqus
↑ Back to top | Local H Tabs for Buffalo Trace. Lyrics for acoustic guitar and electric guitar. 1 Tablatures and chords are parodies/interpretations of the original songs. You may use it for private study, scholarship, research or language learning purposes only