» » »

Bound To The Floor Tabs (ver.2)

Artists:  A B C D E F G H I J K L M N O P Q R S T U V W X Y Z # 

Bound To The Floor Tabs (ver.2)

Local H
Rating:
0/5 (0 votes)

Hard to play? Try these video lessons and learn fast.
                OK, If you listen to the song you can find out the strumming
This is my first tab and i think it's a good one. Enjoy!
E|-------------------------------------------|
B|-----00000--000000--0--00000--000----0000--|
G|-----44444--444444--4--44444--444----4540--|
D|-----22222--222222--0--22222--000----0000--|
A|-----00000--333333--0--00000--222----2320--|
E|--------------------0--33333--000----0000--|

E|---------------------------------|
B|---------------------------------|
G|------------------666666---------|
D|-6666/999999-4444-666666---------|
A|-6666/999999-4444-444444---------|
E|-4444/777777-2222----------------|

E|-------------------|
B|-------------------|
G|-------------------|
G|--------^full bend-|
D|--888-6-8-6-8------|
A|-------------------|
E|-------------------|
            
Hard to play? Try these video lessons and learn fast. | Correct




comments powered by Disqus
↑ Back to top | Tablatures and chords are parodies/interpretations of the original songs. You may use it for private study, scholarship, research or language learning purposes only