» » »

Bound To The Floor Tabs (ver.1)

Artists:  A B C D E F G H I J K L M N O P Q R S T U V W X Y Z # 

Bound To The Floor Tabs (ver.1)

Local H
Rating:
0/5 (0 votes)

Tabs too difficult? Try these video lessons and learn fast.
                Great song !!!!!!!! the best ever , you must download the mp3 or buy CD!!!!!!


E|-----xxxxx--xxxxxx--x--xxxxx--xxx----x-x-x-x--------------------------|
B|-----00000--000000--0--00000--000----0-0-0-0--------------------------|
G|-----44444--444444--4--44444--444----4-5-4-0--------------------------|
D|-----22222--222222--2--22222--000----0-0-0-0--------------------------|
A|-----00000--333333--0--00000--222----2-3-2-0--------------------------|
E|-----xxxxx--xxxxxx--0--33333--000----0-0-0-0--------------------------|
	                                ^^^^^^^  after this repeat
                                                from beggining
the whole song is the same strums ,but the strums go at different rythms
(listen to the song for refference to rythm and strum pattern)

here are the lyrics

***********************************************
Born to be down 
I've learned all my lessons before now 
Born to be down 
I think you'll get used to it 

And you just don't get it 
you keep it copacetic 
And you learn to accept it 
You know it's so pathetic 

Born to be down 
I think that I've said this before now 
Born to be down 
What good is confidence? 

And you just don't get it 
you keep it copacetic 
And you learn to accept it 
You know it's so pathetic 
and you don't  
 
***********************************************
  
 
Ciao!
-chris


CHORUS TABBED  BY 
kritic28 
 
-------------------- 
-------------------- 
---------------7---- 
--7---10---5---7---- 
--7---10---5---5---- 
--5---8----3-------- 

**thanks kritic28**
            
Tabs too difficult? Try these video lessons and learn fast.




comments powered by Disqus
↑ Back to top | Tablatures and chords are parodies/interpretations of the original songs. You may use it for private study, scholarship, research or language learning purposes only