» » »

Local H, Bag Of Hammers Tabs (ver.1)

Artists:  A B C D E F G H I J K L M N O P Q R S T U V W X Y Z # 

Bag Of Hammers Tabs (ver.1)

Local H Tabs
 Rating:
4/5 (4 votes)
Bag Of Hammers lessons Tabs too difficult? Try these video lessons and learn fast
1
                
Tuning: Standard


Intro: x6
e:--------------------------|
b:--------------------------|
g:--------------------------|
d:-----------------222222---|
a:-3-2-3-2-3-2-2-2-222222---|
e:-----------------000000---|

on the 3rd time a second guitar plays this:

e:--------------------------|
b:--------------------------|
g:--------------------------|
d:-----------------222222---|
a:-----------------222222---|
e:-8-6-8-6-8-6-6-6-000000---|


You pin me down...you box my ears
e:-------------------------|
b:-------------------------|
g:-------------------------|
d:-5555555555555555--------|
a:-5555555555555555--------|
e:-3333333333333333--------|


                   ..I'm no baby           ..i'm no baby
e:--------------------------------------------------|
b:--------------------------------------------------|
g:--------------------------------------------------|
d:-----------------222222-------------------222222--|
a:-3-2-3-2-3-2-2-2-222222---3-2-3-2-3-2-2-2-222222--|
e:-----------------000000-------------------000000--|

I've made a meal...
e:-------------------------|
b:-------------------------|
g:-------------------------|
d:-5555555555555555--------|
a:-5555555555555555--------|
e:-3333333333333333--------|

                   i'm no baby              i'm no baby
e:--------------------------------------------------|
b:--------------------------------------------------|
g:--------------------------------------------------|
d:-----------------222222-------------------222222--|
a:-3-2-3-2-3-2-2-2-222222---3-2-3-2-3-2-2-2-222222--|
e:-----------------000000-------------------000000--|

You never said smart...
e:--------------------------------------------------------------|
b:--------------------------------------------------------------|
g:----------------3333333333333----------------55555555-3333-22-|
d:-55555555555555-3333333333333-33333333333333-55555555-3333-22-|
a:-55555555555555-1111111111111-33333333333333-33333333-1111-00-|
e:-33333333333333---------------11111111111111------------------|

e:--------------------------------------------------------------|
b:--------------------------------------------------------------|
g:----------------3333333333333----------------55555555-3333-22-|
d:-55555555555555-3333333333333-33333333333333-55555555-3333-22-|
a:-55555555555555-1111111111111-33333333333333-33333333-1111-00-|
e:-33333333333333---------------11111111111111------------------|

..Fall
e:--------------------------------------------------------|
b:--------------------------------------------------------|
g:--------------------------------------------------------|
d:-555555555555555555555555555555555555555555555555555555-|
a:-------------------------------555555555555555555555555-|
e:-------------------------------333333333333333333333333-|


                   ..I'm no baby           ..i'm no baby
e:--------------------------------------------------|
b:--------------------------------------------------|
g:--------------------------------------------------|
d:-----------------222222-------------------222222--|
a:-3-2-3-2-3-2-2-2-222222---3-2-3-2-3-2-2-2-222222--|
e:-----------------000000-------------------000000--|

I've made a meal...
e:-------------------------|
b:-------------------------|
g:-------------------------|
d:-5555555555555555--------|
a:-5555555555555555--------|
e:-3333333333333333--------|

                   ..I'm no baby           ..i'm no baby
e:--------------------------------------------------|
b:--------------------------------------------------|
g:--------------------------------------------------|
d:-----------------222222-------------------222222--|
a:-3-2-3-2-3-2-2-2-222222---3-2-3-2-3-2-2-2-222222--|
e:-----------------000000-------------------000000--|

You never said smart...
e:--------------------------------------------------------------|
b:--------------------------------------------------------------|
g:----------------3333333333333----------------55555555-3333-22-|
d:-55555555555555-3333333333333-33333333333333-55555555-3333-22-|
a:-55555555555555-1111111111111-33333333333333-33333333-1111-00-|
e:-33333333333333---------------11111111111111------------------|

e:--------------------------------------------------------------|
b:--------------------------------------------------------------|
g:----------------3333333333333----------------55555555-3333-22-|
d:-55555555555555-3333333333333-33333333333333-55555555-3333-22-|
a:-55555555555555-1111111111111-33333333333333-33333333-1111-00-|
e:-33333333333333---------------11111111111111------------------|

                                                         la la la la
e:---------------------------------------------------------|
b:---------------------------------------------------------|
g:---------------------------------------------------------|
d:---------------------------------------------------------|
a:---------------------------------------------------------|
e:-8-6-8-6-8-6-8-6-8-6-8-6-8-6-8-6-8-6-8-6-8-6-8-6-8-6-8-6-| (a lot)

  YEAH!
e:----------|
b:----------|
g:----------|
d:-222222---|
a:-222222---|
e:-000000---|


you pin me down...
e:---------------------------------------------------------------------------|
b:---------------------------------------------------------------------------|
g:---------------------------------------------------------------------------|
d:-5555555555555555555555555555555555555555555555555555555555555555555555533-|
a:-------------------------------5555555555555555555555555555555555555555533-|
e:-------------------------------3333333333333333333333333333333333333333333-|

End On:

e:----|
b:----|
g:----|
d:-5--|
a:-5--|
e:-3--|
            
Submit corrections

comments powered by Disqus
↑ Back to top | Local H Tabs for Bag Of Hammers. Lyrics for acoustic guitar and electric guitar. 1 Tablatures and chords are parodies/interpretations of the original songs. You may use it for private study, scholarship, research or language learning purposes only