» » »

(Baby Wants To) Tame Me Tabs (ver.1)

Artists:  A B C D E F G H I J K L M N O P Q R S T U V W X Y Z # 

(Baby Wants To) Tame Me Tabs (ver.1)

Local H
Rating:
0/5 (0 votes)

Hard to play? Try these video lessons and learn fast.
                tune down 1/2 step

guitar1
inro/verse

    A                                     G             E
eB------------------------------------------------------------------------|
Bb------------------------------------------------------------------------|
Gb------------------------------------------------------------------------|
Db--7--7--7--5-5--7--7-7--7--5-5-repeat---5--5--5-5-5---2--2-2--2-2-2-2---|
Ab--7--7--7--5-5--7--7-7--7--5-5-several--5--5--5-5-5---2--2-2--2-2-2-2---|
Eb--5--5--5--5-5--5--5-5--5--5-5-times----3--3--3-3-3---0--0-0--0-0-0-0---|

guitar2

eB----------------------------------------------------------------------|
Bb----------------------------------------------------------------------|
Gb----5-7-7/9-----7/9-7-5------5-7-7b9r7-5-7-7-----5-7-7b9r7-5-7-5------|
Db--7------------------------7------------------7------------------7----|
Ab----------------------------------------------------------------------|
Eb----------------------------------------------------------------------|

b: full note bend    r:release     /:slide

CHORUS (guitar1)

at first play the whole "A"- stuff just like in the intro/verse
then:

       G            D                          
eb-------------------------------------------------------|
Bb-------------------------------------------------------|
Gb------------------7--7--7--7-7--7--7--7--7--5-5--------|
Db---5-5-5-5-5------7--7--7--7-7--7--7--7--7--5-5--------|
Ab---5-5-5-5-5-...--5--5--5--5-5--5--5--5--5--5-5--------|
Eb---3-3-3-3-3-------------------------------------------|


      F                G                   E
eB-----------------------------------------------0-0-0--------|
Bb-----------------------------------------------0-0-0--------|
Gb-----------------------------------------------X-X-X--------|
Db---3-3-3-3-3-3-3-3--5-5-5-5-5-5-5-5-5-5--2-2-2-2-2-2--------|
Ab---3-3-3-3-3-3-3-3--5-5-5-5-5-5-5-5-5-5--2-2-2-2-2-2--------|
Eb---1-1-1-1-1-1-1-1--3-3-3-3-3-3-3-3-3-3--0-0-0-0-0-0--------|

   " Guess I'll never be what she sees in me"


A
Framed


I'm framed in love again

                G
Peaking at the end

E              A
Baby wants to tame me


So afraid to live a life alone

                     G
Should make a happy home

E            A
Only used to tame me


CHORUS:

A
Hey, I'm driving her away

G
Watching?? what you crave

                      A
Back and forth I'll sway

                   A   G    D
Driving her away

A
Hey, nothing good can stay

G
Black and white to gray

                     D        
Back and forth I'll sway

F                G                   E
Guess I'll never be what she sees in me

                A
Baby wants to tame me


Blame

She knows something's wrong

She's seen it all along

But she don't want to blame

So afraid to live a life alone

She'd make a happy

Baby wants to tame

Hey, I'm driving her away

Black and white to gray

Back and forth I'll sway

Driving her away

Hey, nothing good can stay

Watching?? what you crave

Back and forth I'll sway

I'm driving her away, away, away

Hey, nothing good can stay

Black and white to gray

Back and forth I'll sway

Yeah

 F                 G

I guess I'll never be what you see in

 F                 G

I guess I'll never be what you see in

 F                 G                  E

I guess I'll never be what you see in me


Baby wants to tame me
            
Hard to play? Try these video lessons and learn fast. | Correct




comments powered by Disqus
↑ Back to top | Tablatures and chords are parodies/interpretations of the original songs. You may use it for private study, scholarship, research or language learning purposes only