» » »

5th Avenue Crazy Bass tabs (ver.1)

Artists:  A B C D E F G H I J K L M N O P Q R S T U V W X Y Z # 

5th Avenue Crazy Bass tabs (ver.1)

Local H
Rating:
5/5 (1 vote)

Hard to play? Try these video lessons and learn fast.
                Here is a great song by a great band! Any questions? Send me an email


Tuning: Drop C#

Bass comes in at 0:14

Intro/Verse                                       Repeat until Chorus
G |----------------------------------------------------------------------|
D |----------------------------------------------------------------------|
A |----------------------------------------------------------------------| 
C#|---5-5-3-0--0-3-0--5-5-3-0--0-3-0--5-5-3-0--0-3-0--5-5-3-0--0-3-0-----|

Chorus
G |------------------------------------------------------------------|
D |------------------------------------------------------------------|
A |------------------------------------------------------------------|
C#|---0-0-0--0-0-0-0--3-3-3--3-3-3-3--5-5-5--5-5-5-5--5-5-5--5-5-5-5-|

G |-----------------------------------------------------|
D |-----------------------------------------------------|
A |-----------------------------------------------------| Then back to verse
C#|---0-0-0--0-0-0-0--3-3-3--3-3-3-3--5-5-5--5-5-5-5--5-|

Bridge (After clean guitar part, bass slowly fades in)
G |-----------------------------------------------------------|
D |-----------------------------------------------------------|Then back
A |-----------------------------------------------------------| to verse
C#|---0-0-0-0-0-0-0-0-0-0-0-0-0-0-0-0-0-0-0-0-0-0-0-0-0-0-0-0-|

Outro (During the scream part)
G |------------------------------------------------------------------|
D |------------------------------------------------------------------|
A |------------------------------------------------------------------|
C#|---0-0-0-0-0-0-0-0--3-3-3-3-3-3-3-3--5-5-5-5-5-5-5-5--5-5-3-0-----|


Enjoy!
            
Hard to play? Try these video lessons and learn fast. | Correct




comments powered by Disqus
↑ Back to top | Tablatures and chords are parodies/interpretations of the original songs. You may use it for private study, scholarship, research or language learning purposes only