>
 >
5th Avenue Crazy

5th Avenue Crazy Guitar Tabs

Local H - 5th Avenue Crazy chords, tabs, tablatures, lyrics

Guitar lessons | Add/correct | Request | Top 50 tabs Artists:  A B C D E F G H I J K L M N O P Q R S T U V W X Y Z 0-9

5th Avenue Crazy Guitar Tabs – Local H

CD, Sheet music, Poster

Do you like 5th Avenue Crazy? Share with your friends now
Bass TabsTabsTabs v2
This is my first guitar tab! Heres a great song! Needs some special tuning! Have any 
questions? Email me!


Intro/Verse
eb|---------------------------------------|
Bb|---------------------------------------|
Gb|---------------------------------------|
C#|--5-5-3-0--0-3-0--5-5-3-0--0-3-0-------|
Ab|--5-5-3-0--0-3-0--5-5-3-0--0-3-0-------|
C#|--5-5-3-0--0-3-0--5-5-3-0--0-3-0-------|

Chorus
eb|-----------------------------------------------------------------|
Bb|-----------------------------------------------------------------|
Gb|-----------------------------------------------------------------|
C#|--0-0-0--0-0-0-0--3-3-3--3-3-3-3---5-5-5--5-5-5-5--5-5-5--5-5-5-5|
Ab|--0-0-0--0-0-0-0--3-3-3--3-3-3-3---5-5-5--5-5-5-5--5-5-5--5-5-5-5|
C#|--0-0-0--0-0-0-0--3-3-3--3-3-3-3*--5-5-5--5-5-5-5--5-5-5--5-5-5-5|

eb|-----------------------------------------------------|
Bb|-----------------------------------------------------|
Gb|-----------------------------------------------------|
C#|--0-0-0--0-0-0-0--3-3-3--3-3-3-3---5-5-5--5-5-5-5--5-|
Ab|--0-0-0--0-0-0-0--3-3-3--3-3-3-3---5-5-5--5-5-5-5--5-|
C#|--0-0-0--0-0-0-0--3-3-3--3-3-3-3*--5-5-5--5-5-5-5--5-|

Bridge
eb|---------------------------5--5--5--5--5--5--5--5--------------|
Bb|-6--6--6--6--6--6--6--6----------------------------------------|
Gb|---7--7--7--7--7--7--7--7----7--7--7--7--7--7--7--7------------|
C#|---------------------------------------------------------------|
Ab|---------------------------------------------------------------|
C#|---------------------------------------------------------------|

eb|-8--8--8--8--8--8--8--8----10--10--10--10--10--10--10--10------|
Bb|---------------------------------------------------------------|
Gb|---7--7--7--7--7--7--7--7-----7---7---7---7---7---7---7---7----|
C#|---------------------------------------------------------------|
Ab|---------------------------------------------------------------|
C#|---------------------------------------------------------------|

Outro (during the scream)
eb|-----------------------------------------------------------------|
Bb|-----------------------------------------------------------------|
Gb|-----------------------------------------------------------------|
C#|--0-0-0-0-0-0-0-0--3-3-3-3-3-3-3-3--5-5-5-5-5-5-5-5--5-5-3-0-----|
Ab|--0-0-0-0-0-0-0-0--3-3-3-3-3-3-3-3--5-5-5-5-5-5-5-5--5-5-3-0-----|
C#|--0-0-0-0-0-0-0-0--3-3-3-3-3-3-3-3--5-5-5-5-5-5-5-5--5-5-3-0-----|

Enjoy :D

| /  slide up
| \  slide down
| h  hammer-on
| p  pull-off
| ~  vibrato
| *  harmonic
| x  Mute note





Comments


Popular Local H tabs & chords
Bound For The Floor 1 Bass Tabs
Freeze-Dried Flies Chords
Feed Tabs
Fine And Good Tabs
Manifest Destiny Tabs
Mellowed Tabs
Ritz Corner Tabs
User Tabs
Fritzes Corner Ukulele
Hands On The Bible Ukulele


Song lyrics



↑ Back to top | Tablatures and chords are parodies/interpretations of the original songs. You may use it for private study, scholarship, research or language learning purposes only
© 2014 AZChords.com Contact us | Privacy policy | DMCA | Add/correct tabs | Request tabs | Top 50 tabs