» » »

Amazing Tabs (ver.1)

Artists:  A B C D E F G H I J K L M N O P Q R S T U V W X Y Z # 

Amazing Tabs (ver.1)

Lloyd Alex
Rating:
0/5 (0 votes)
Tabs too difficult? Try these video lessons and learn fast.
                "Amazing"
By Alex Lloyd

This tab is straight off his performance he did at the ARIAs. 
The first verse is just ALex singing. I've tabbed the chords 
in case you still want to play it. They are the correct notes 
but the chord fingering might be a bit different. These lyrics 
might be dodgy. In fact they're very dodgy.

Intro is just a drum beat and loop.

Verse
e|----------------------------2----------------------------|
B|----2-----------------------3----------------------------|
G|----2-----------------------2----------------------------|
D|----2----------------------------------------------------|
A|---------------------------------------------------------|
E|---------------------------------------------------------|
  Now all you wanna do is rock
  But you don't wanna bear the sock no more
  When you swear it clears your eyes
  You lay the feelings that you have denied


Pre-Chorus
e|----------------------------------------------------------|
B|---5------------5---------3----------2--------------------|
G|---6------------6---------4----------2--------------------|
D|---7------------6---------5----------4--------------------|
A|---7------------7---------5----------4--------------------|
E|----------------------------------------------------------|
 You never refuse at your door
 Just like a hundred times before
 But you dont wanna lead the end


Chorus (play twice, on second time hold the D)
e|--------------------2---------5---------------------------|
B|----2---------------2---------7---------------------------|
G|----2-------1-------2---------7---------------------------|
D|----2-------2-------4---------7---------------------------|
A|------------2-------4---------5---------------------------|
E|--------------------2-------------------------------------|
 Cause you were amazing, And we did amazing things
 I wouldn't change it, Cause you were amazing


Verse 2
e|----------------------------2----------------------------|
B|----2-----------------------3----------------------------|
G|----2-----------------------2----------------------------|
D|----2----------------------------------------------------|
A|---------------------------------------------------------|
E|---------------------------------------------------------|
  You're building bridges in your mind
  Your eagerness now is on the line
  The plastic mountain at your feet
  Divided streets now as you look to find the seed


Pre-Chorus
e|----------------------------------------------------------|
B|---5------------5---------3----------2--------------------|
G|---6------------6---------4----------2--------------------|
D|---7------------6---------5----------4--------------------|
A|---7------------7---------5----------4--------------------|
E|----------------------------------------------------------|
 You never refuse at your door
 Just like a hundred times before
 But you dont wanna lead the end


Chorus (play twice, on second time hold the D)
e|--------------------2---------5---------------------------|
B|----2---------------2---------7---------------------------|
G|----2-------1-------2---------7---------------------------|
D|----2-------2-------4---------7---------------------------|
A|------------2-------4---------5---------------------------|
E|--------------------2-------------------------------------|
 Cause you were amazing, And we did amazing things
 I wouldn't change it, Cause you were amazing


Bridge (The A and the D are the lead in chords and the main bridge 
chords are Bm and E. On the last line of the bridge, after the Bm 
you slide up to a D and then to an E)

e|------2------2-----------2----------2----5----------------|
B|--2---3------3-----------3----------3----7----------------|
G|--2---2------4-----1-----4----1-----4----7----1-----------|
D|--2----------4-----2-----4----2-----4----7----2-----------|
A|-------------2-----2-----2----2-----2----5----2-----------|
E|----------------------------------------------------------|
  But I really didn't wanna b**ch today
  And I really didn't want to end this way
  But the things that didn't find us
  Are the things we put behind us
  today


Chorus (play twice, on second time hold the D)
e|--------------------2---------5---------------------------|
B|----2---------------2---------7---------------------------|
G|----2-------1-------2---------7---------------------------|
D|----2-------2-------4---------7---------------------------|
A|------------2-------4---------5---------------------------|
E|--------------------2-------------------------------------|
 Cause you were amazing, And we did amazing things
 I wouldn't change it, Cause you were amazing
            
Tabs too difficult? Try these video lessons and learn fast.


comments powered by Disqus
↑ Back to top | Tablatures and chords are parodies/interpretations of the original songs. You may use it for private study, scholarship, research or language learning purposes only